Acordes y tablaturas para guitarra

Acordes y Tablaturas
Usuario: Password:

Buscar:
Acordes y Tablaturas >> Letra C >> Acordes de Camila >> Alejate De Mi
Tablatura de Alejate De Mi, Camila

Alejate De Mi

Camila






Hola, como la primera version de esta cancion le faltaban algunas partes. la complete y esta buenisima. 
Aqui les dejo los verdaderos acordes y tablaturas de esta cancion de Camila.....ojo, el capo lo colocan en el 4to traste!!!
   Am        G         F
E|---------------------------1-----1---------------|
B|-1-----1---0-----0---1---------------------------|
G|-2---2-----0---0-----2---2-----2-----------------|
D|-2-2-------0-0-------3-3-----3-------------------|
A|-0-----------------------------------------------|
E|-----------3---------1---------------------------|
  Alejate de mi y hazlo pronto antes de que te mienta

   Am        G         F
E|---------------------------1-----1---------------|
B|-1-----1---0-----0---1---------------------------|
G|-2---2-----0---0-----2---2-----2-----------------|
D|-2-2-------0-0-------3-3-----3-------------------|
A|-0-----------------------------------------------|
E|-----------3---------1---------------------------|
  Tu cielo se hace gris, yo ya camino bajo la tormenta

   Am        G         F
E|---------------------------1-----1---------------|
B|-1-----1---0-----0---1---------------------------|
G|-2---2-----0---0-----2---2-----2-----------------|
D|-2-2-------0-0-------3-3-----3-------------------|
A|-0-----------------------------------------------|
E|-----------3---------1---------------------------|
  Alejate de mi, escapa ve que ya no debo verte.

   Am        G         F
E|---------------------------1-----1---------------|
B|-1-----1---0-----0---1---------------------------|
G|-2---2-----0---0-----2---2-----2-----------------|
D|-2-2-------0-0-------3-3-----3-------------------|
A|-0-----------------------------------------------|
E|-----------3---------1---------------------------|
   Entiende que aunque pida que te vayas, no quiero perderte.


PRECORO


   Em            Am            F            Am
E|----------------------------------------------------------|
B|-0-----0-----0-1-----1-----1-1-----1------1-----0-----0---|
G|-0---0-----0---2---2-----2---2---2--------2---2-2---2-----|
D|-2-2-----2-----2-2-----2-----3-3----------2-2-----2-------|
A|---------------0--------------------------0---------------|
E|-0---------------------------1----------------------------|
   La luz ya, no alcanza, No quieras caminar sobre el dolor descalza?

   Em          Am               F    F     G     F   G
E|-----------------------------1-1--1-1---3-3---1-1-3-3--------|
B|-0-----0-----0-1-----1-----1-1-1--1-1---3-3---1-1-3-3--------|
G|-0---0-----0---2---2-----2---2-2--2-2---4-4---2-2-4-4--------|
D|-2-2-----2-----2-2-----2-----3-3--3-3---5-5---3-3-5-5--------|
A|---------------0-------------3-3--3-3---5-5---3-3-5-5--------|
E|-0---------------------------1-1--1-1---3-3---1-1-3-3--------|
   Un Angel te cuida.Y puso en mi boca la verdad para mostrarme la salida. Y alejate de mi 


 C
 Amor?.

                       G
Yo se que aun estas a tiempo?.
                         Am
No soy quien en verdad parezco?.
      G                F            G
y perdon no soy quien crees yo no cai del cielo


    F             G      C
Si aun no me lo crees amor??
                        G
y quieres tu correr el riesgo
                        Am
veras que soy realmente bueno
        G              F    
en engañar y hacer sufrir.....  

   F       G          
E|--------------------------------------------------------|
B|-1-----1-3-----1----------------------------------------|
G|-2---2---4---4------------------------------------------|
D|-3-3-----5-5--------------------------------------------|
A|--------------------------------------------------------|
E|-1-------3----------------------------------------------|
         uooo

   F             Em            F             G   
E|---------------------0---------------------------3---|
B|-1-----1-----1-0-----------0-1-----1-----1-3---------|
G|-2---2-----2---0---2-----2---2---2-----2---4---4-----|
D|-3-3-----3-----2-2-----2-----3-3-----3-----5-5-------|
A|-----------------------------------------------------|
E|-1-------------0-------------1-------------3---------|
  A quien mas quiero, a quien mas quiero...... 


  Am                         G                 F     F G
Alejate de mi pues tu bien sabes que no te merezco

  Am                          G                   F    F G     
quiciera arrepentirme, ser el mismo y no decirte esto

   Am        G         F
E|---------------------------1-----1---------------|
B|-1-----1---0-----0---1---------------------------|
G|-2---2-----0---0-----2---2-----2-----------------|
D|-2-2-------0-0-------3-3-----3-------------------|
A|-0-----------------------------------------------|
E|-----------3---------1---------------------------|
  Alejate de mi, escapa ve que ya no debo verte.

   Am        G         F
E|---------------------------1-----1---------------|
B|-1-----1---0-----0---1---------------------------|
G|-2---2-----0---0-----2---2-----2-----------------|
D|-2-2-------0-0-------3-3-----3-------------------|
A|-0-----------------------------------------------|
E|-----------3---------1---------------------------|
   Entiende que aunque pida que te vayas, no quiero perderte.

RASGADO DE BAJOS
    Em         Am
La luz ya, no alcanza?..
     F                                Am
No quieras caminar sobre el dolor descalza?
    Em        Am
Un Angel te cuida??.
   F                                              G
Y puso en mi boca la verdad para mostrarme la salida?.


CORO:

    F         G     C
Y alejate de mi amor?.
                        G
Yo se que aun estas a tiempo?.
                         Am
No soy quien en verdad parezco?.
      G                F            G
y perdon no soy quien crees yo no cai del cielo


    F             G      C
Si aun no me lo crees amor??
                        G
y quieres tu correr el riesgo
                        Am
veras que soy realmente bueno
        G              F    
en engañar y hacer sufrir
            G                Am   G    Em    F
y hacer llorar, a quien mas quieroooooooooooo..... 

   G       C       G       Am      G       F       G     
E|----------------------------------------------------------|
B|-3-----3-1-----1-3-----3-1-----1-3-----3-1-----1-1-----1--|
G|-4---4---0---0---4---4---2---2---4---4---2---2---4---4----|
D|-5-5-----2-2-----5-5-----2-2-----5-5-----3-3-----5-5------|
A|---------3---------------0--------------------------------|
E|-3---------------3---------------3-------1-------3--------|
  Y alejate de mi amor, yo se que ahun estas a tiempo, no soy quien en verdad paresco y perdon, no soy quien crees, yo no cai del cielo....

    F               G    C
Si ahun no me lo crees amor, 
                          G
y quieres tu correr el riesgo, 
                          Am         G              F
veras que soy realmente bueno en enganar y hacer sufrir 

   F       G          
E|--------------------------------------------------------|
B|-1-----1-3-----1----------------------------------------|
G|-2---2---4---4------------------------------------------|
D|-3-3-----5-5--------------------------------------------|
A|--------------------------------------------------------|
E|-1-------3----------------------------------------------|
         uooo

   F             Em            F             G   
E|---------------------0---------------------------3---|
B|-1-----1-----1-0-----------0-1-----1-----1-3---------|
G|-2---2-----2---0---2-----2---2---2-----2---4---4-----|
D|-3-3-----3-----2-2-----2-----3-3-----3-----5-5-------|
A|-----------------------------------------------------|
E|-1-------------0-------------1-------------3---------|
  A quien mas quiero, a quien mas quiero 

   Am        G         F
E|---------------------------1-----1---------------|
B|-1-----1---0-----0---1---------------------------|
G|-2---2-----0---0-----2---2-----2-----------------|X2
D|-2-2-------0-0-------3-3-----3-------------------|
A|-0-----------------------------------------------|
E|-----------3---------1---------------------------|


Riff
   C
E|-0----------------------------------------|
B|-1----------------------------------------|
G|-0----------------------------------------|
D|-2----------------------------------------|
A|-3----------------------------------------|
E|-0----------------------------------------|

Bueno, ya saben el capotraste lo colocan en el 4to traste pa que suene igual que la cancion original de camila!!!
o van bajando el capotreste segun su tono de voz!!!
comontarios y sugerencias: [email protected]
TRABAJO REALIZADO POR: Fabo free rock nsg93(fabrijd)

Que te parecio? Calificalo con estrellas!!

Rating: 7.8/10 (548 votos)

Este fichero es trabajo propio de su transcriptor y representa su interpretación personal de la canción. El material contenido en esta página es para exclusivo uso privado, por lo que se prohibe su reproducción o retransmisión, así como su uso para fines comerciales.


Deja tus comentarios:

Letras de Camila
Letras de canciones | Musica Independiente