Acordes y tablaturas para guitarra

Acordes y Tablaturas
Usuario: Password:

Buscar:
Acordes y Tablaturas >> Letra S >> Acordes de Seether >> Careless Whisper
Tablatura de Careless Whisper, Seether

Careless Whisper

Seether






INTRODUCCION:  Seether - Careless Whisper

e|--12-10-------12-10--------8-6-----8-6--------------------
b|--------10----------10---------6-------6------------------
G|-----------10---------10---------7------------------------
D|----------------------------------------------------------
A|----------------------------------------------------------
E|----------------------------------------------------------

e|----------------------------------------------------------
b|--11-10------------------------------10-------------------
G|-------10--------------------9-10-12----------------------
D|----------12/8------8--10-12------------------------------
A|-----------------12---------------------------------------
E|----------------------------------------------------------

TODO [X2]

La cancion esta facil aunq me demore un poco en sacarla pero es muy buena :D, la sake con guitarra acustica pero tmbn la probe 
en guitarra electrica y tmbn suena bn, si kieren q suene mejor denle efecto a la hora de tocarla ya dependiendo del estilo 
q tenga cada uno al tocarla. SUERTE xD.

Que te parecio? Calificalo con estrellas!!

Rating: 7.4/10 (66 votos)

Este fichero es trabajo propio de su transcriptor y representa su interpretación personal de la canción. El material contenido en esta página es para exclusivo uso privado, por lo que se prohibe su reproducción o retransmisión, así como su uso para fines comerciales.


Deja tus comentarios:
Letras de canciones | Musica Independiente