Enviado por:
LautaroRnR

Las Pastillas Del Abuelo, Donde Esconder Tantas Manos

Imprimir
Bueno aka les dejo el solo de este tema, cual duda avisen =)

g|-----------8--------------------|
d|------8-10---10-8---------------|
a|-8b10-------------10------------|

e|-------11--------------------------8-----------------|
B|-11b13----11b13--8---------------8-------------------|
g|--------------------10-8-10b12--------8--------------|
d|----------------------------------------8--10-10--8--|
a|-----------------------------------------------------|
E|-----------------------------------------------------|


e|---------11-----------11-------11-13/15-13--11-10----|
B|-13s11-----13-13s11-------13-------------------------|
g|-------12-----------12-------------------------------|
d|-----------------------------------------------------|
a|-----------------------------------------------------|
E|-----------------------------------------------------|

e|-11s10-------------------8---------------8-----------|
B|-------11--------------8----11s8-------8---11s8------|
g|----------10/8-10-12-------------10b12----------10b12|
d|-----------------------------------------------------|
a|-----------------------------------------------------|
E|-----------------------------------------------------|

e|-----------------------------------------------------|
b|--------------------------------9s8------------------|
g|-10b12-10b12-10b12-10b12-10b12------10-8s7-----------|
d|--------------------------------------------10-8-----|
a|-----------------------------------------------------|
E|-----------------------------------------------------|

e|------------11----11b13-11---------------------------|
b|-11-11-13-11---13------------11b13-11b13-11b13-11b13-|
g|-----------------------------------------------------|
d|-----------------------------------------------------|
a|-----------------------------------------------------|
E|-----------------------------------------------------|


PRIMER YEITE 

e|------------------------------------------------------------
b|---8-11s8--10s8------------11s8--10s8------------11s8--10s8-
g|----------------11s8--10s8------------11s8--10s8------------

e|-----------------------8---------- 
b|--11s8-----------8-------11s8----- 
g|--------10b12-------------------10 

SEGUNDO YEITE: 

e|----------11----------------11--------------------
b|--13b11-----13--11--13b11-----13--11--13^11-------
g|-------12-----------------12-----------------12--- 

e|--11-----------11------------------11------------------
b|-----13--11--------13--11--13b11------13--11--13b11----
g|-------------12------------------12------------------12 

e|--11^10------------------------------8---------------8--------| 
b|---------11------------------------8----11s8--------8--11b8---|
g|-------------11--8--11--8--10b12--------------10b12---------10|


TERCER YEITE 


e|--------------------------------------|
b|--------------------------------------|  
g|------8--10b8-----11s8-----10s8-------|
d|--10----------------------------------| 
a|--------------------------------------|
E|--------------------------------------| 

Y RESUELVE ASI 


e|---------------------------------------------|
b|---------------------------------------------|  
g|----8----------------------------------------|
d|-10---10-8-10s8-----8------------------------| 
a|----------------10----10-8-10s8----8---------|
E|--------------------------------11---11-10-8-|

Final

e|--------15--16--18s16s15------15-15-----15-16-18s16s15-15-----|
b|----16--------------------18-----------16---------------18-16-|
g|--17--------------------------------17----------------------17|
d|--------------------------------------------------------------|
a|--------------------------------------------------------------|
E|--------------------------------------------------------------|

e|-------------------15------15-15-------15--------------15----|
b|-16-16-16-16-18-16--18b20--------18b20----18b20---18b10------|
g|-------------------------------------------------------------|
d|-------------------------------------------------------------|
a|-------------------------------------------------------------|
E|-------------------------------------------------------------|

e|---11-15-11-13-11--11------------------11----------------|
b|-11---------------13--13-11---------11----11b13----------|
g|-----------------------------12--12----------------------|
d|---------------------------------------------------------|
a|---------------------------------------------------------|
E|---------------------------------------------------------|
Aviso: Este fichero es trabajo propio de su transcriptor y representa su interpretación personal de la canción. El material contenido en esta página es para exclusivo uso privado, por lo que se prohibe su reproducción o retransmisión, así como su uso para fines comerciales.

Califica esta canción


Comentarios en Facebook