Enviado por: zorroloco
Agrandar Letra
Reducir Letra
Imprimir



Dragon Ball, Tapion Theme

Bueno ai les dejo algo q sake del oido 
comenten :D! 
todabia no la saco completa si... ¬¬ pero ya la subire completa 






e-----------------------------------------------------------
B-----------------------------------------------------------
G-----------------------------------------------------------
D--------3--10--8--6--8--3--5--6----6--6--8--6--5-----------
A--3--3-----------------------------------------------------
E-----------------------------------------------------------


e-----------------------------------------------------------
B-----------------------------------------------------------
G-----------------------------------------------------------
D--------3--10--8--6--8--3--5--6----6--5--3--1--3-----3-----
A--3--3--------------------------------------------3--------
E-----------------------------------------------------------
Aviso: Este fichero es trabajo propio de su transcriptor y representa su interpretación personal de la canción. El material contenido en esta página es para exclusivo uso privado, por lo que se prohibe su reproducción o retransmisión, así como su uso para fines comerciales.

Califica esta canción


Comentarios en Facebook