Enviado por: sk4r1c0n
Agrandar Letra
Reducir Letra
Imprimir


Otras Versiones de Todas Mueren Por Mi:









Cartel De Santa, Todas Mueren Por Mi

les dejo esta rola alos realistas como yo ps espero que les guste no alviden sus comentarios

Intro: [Se repite 4 veces]
G---------------------------------
D----8-10/12-10-----------8-------
A-10---------------8-10-8---10----
E---------------10----------------


La otra guitarra que se escucha
al fondo
E----3----3-----------------------
B---4----3------------------------
G--5----3-------------------------
D-5----5--------------------------


Esto se puede utilizar en la parte
del coro
D-|-------------------------------
A-|-10/12-10/12v~~----------------
E-|-------------------------------


Y empieza...
Aviso: Este fichero es trabajo propio de su transcriptor y representa su interpretación personal de la canción. El material contenido en esta página es para exclusivo uso privado, por lo que se prohibe su reproducción o retransmisión, así como su uso para fines comerciales.

Califica esta canción


Comentarios en Facebook