Acordes y tablaturas para guitarra

Acordes y Tablaturas
Usuario: Password:

Buscar:
Acordes y Tablaturas >> Letra M >> Acordes de Mago De Oz >> Pensando En Ti
Tablatura de Pensando En Ti, Mago De Oz

Pensando En Ti

Mago De Oz






Este punteo de C y Am se toca en toda la rola al igual que el intro.

Intro:

( 2 veces )
    C
E|------------------------------------------------------------------
B|-----1----------1----------0----------0----------3----------3-----
G|-------0----------0----------0----------0----------0----------0---
D|---2-----2----2-----2----2-----2----2-----2----2-----2----2-----2-
A|-3----------3----------3----------3----------3----------3---------
E|------------------------------------------------------------------

    Am
E|------------------------------------------------------------------
B|-----1----------1----------0----------0----------3----------3-----
G|-------2----------2----------2----------2----------2----------2---
D|---2-----2----2-----2----2-----2----2-----2----2-----2----2-----2-
A|-0----------0----------0----------0----------0-----------0--------
E|------------------------------------------------------------------

          Hay veces que
E|------------------------------------------------------------------
B|-----1----------1----------0----------0----------3----------3-----
G|-------0----------0----------0----------0----------0----------0---
D|---2-----2----2-----2----2-----2----2-----2----2-----2----2-----2-
A|-3----------3----------3----------3----------3----------3---------
E|------------------------------------------------------------------
   mi alma baila tangos con la soledad
E|------------------------------------------------------------------
B|-----1----------1----------0----------0----------3----------3-----
G|-------2----------2----------2----------2----------2----------2---
D|---2-----2----2-----2----2-----2----2-----2----2-----2----2-----2-
A|-0----------0----------0----------0----------0-----------0--------
E|------------------------------------------------------------------
   y necesito de tabla tu amor
E|------------------------------------------------------------------
B|-----1----------1----------0----------0----------3----------3-----
G|-------0----------0----------0----------0----------0----------0---
D|---2-----2----2-----2----2-----2----2-----2----2-----2----2-----2-
A|-3----------3----------3----------3----------3----------3---------
E|------------------------------------------------------------------
   para asirme a ella en mi tempestad.
E|------------------------------------------------------------------
B|-----1----------1----------0----------0----------3----------3-----
G|-------2----------2----------2----------2----------2----------2---
D|---2-----2----2-----2----2-----2----2-----2----2-----2----2-----2-
A|-0----------0----------0----------0----------0-----------0--------
E|------------------------------------------------------------------
          pensando en ti
E|------------------------------------------------------------------
B|-----1----------1----------0----------0----------3----------3-----
G|-------0----------0----------0----------0----------0----------0---
D|---2-----2----2-----2----2-----2----2-----2----2-----2----2-----2-
A|-3----------3----------3----------3----------3----------3---------
E|------------------------------------------------------------------
   paso el dia pensando en ti.
E|------------------------------------------------------------------
B|-----1----------1----------0----------0----------3----------3-----
G|-------2----------2----------2----------2----------2----------2---
D|---2-----2----2-----2----2-----2----2-----2----2-----2----2-----2-
A|-0----------0----------0----------0----------0-----------0--------
E|------------------------------------------------------------------
          Enseñame
E|------------------------------------------------------------------
B|-----1----------1----------0----------0----------3----------3-----
G|-------0----------0----------0----------0----------0----------0---
D|---2-----2----2-----2----2-----2----2-----2----2-----2----2-----2-
A|-3----------3----------3----------3----------3----------3---------
E|------------------------------------------------------------------
    a escuchar tus labios a leer el sol
E|------------------------------------------------------------------
B|-----1----------1----------0----------0----------3----------3-----
G|-------2----------2----------2----------2----------2----------2---
D|---2-----2----2-----2----2-----2----2-----2----2-----2----2-----2-
A|-0----------0----------0----------0----------0-----------0--------
E|------------------------------------------------------------------
         Llevame
E|------------------------------------------------------------------
B|-----1----------1----------0----------0----------3----------3-----
G|-------0----------0----------0----------0----------0----------0---
D|---2-----2----2-----2----2-----2----2-----2----2-----2----2-----2-
A|-3----------3----------3----------3----------3----------3---------
E|------------------------------------------------------------------
   a donde los sueños fabrican tu voz
E|------------------------------------------------------------------
B|-----1----------1----------0----------0----------3----------3-----
G|-------2----------2----------2----------2----------2----------2---
D|---2-----2----2-----2----2-----2----2-----2----2-----2----2-----2-
A|-0----------0----------0----------0----------0-----------0--------
E|------------------------------------------------------------------
          pensando en ti
E|------------------------------------------------------------------
B|-----1----------1----------0----------0----------3----------3-----
G|-------0----------0----------0----------0----------0----------0---
D|---2-----2----2-----2----2-----2----2-----2----2-----2----2-----2-
A|-3----------3----------3----------3----------3----------3---------
E|------------------------------------------------------------------
   acuno mi alma pensando en ti.
E|------------------------------------------------------------------
B|-----1----------1----------0----------0----------3----------3-----
G|-------2----------2----------2----------2----------2----------2---
D|---2-----2----2-----2----2-----2----2-----2----2-----2----2-----2-
A|-0----------0----------0----------0----------0-----------0--------
E|------------------------------------------------------------------
               Ah                  ah                 ah.
E|------------------------------------------------------------------
B|-----1----------1----------0----------0----------3----------3-----
G|-------0----------0----------0----------0----------0----------0---
D|---2-----2----2-----2----2-----2----2-----2----2-----2----2-----2-
A|-3----------3----------3----------3----------3----------3---------
E|------------------------------------------------------------------

E|------------------------------------------------------------------
B|-----1----------1----------0----------0----------3----------3-----
G|-------2----------2----------2----------2----------2----------2---
D|---2-----2----2-----2----2-----2----2-----2----2-----2----2-----2-
A|-0----------0----------0----------0----------0-----------0--------
E|------------------------------------------------------------------


(Este solo es del violin se debe de tocar suave y con poco efecto)

solo:
E|-12~-10----------10~---------------------------------------------------
B|--------13-12-13----(12-11-10-11-12-)-13-12-10-12-13~-(12-11-10-11-12-)
G|-----------------------------------------------------------------------
D|-----------------------------------------------------------------------
A|-----------------------------------------------------------------------
E|-----------------------------------------------------------------------

 -----------------------------------------
 -12-10~-12-13-12-------------------------
 ------------------14-12-14-12------------
 ------------------------------14-12-14~--
 -----------------------------------------
 -----------------------------------------

 --10----------10~----------------------------------------------------
 -----13-12-13----(12-11-10-11-12-)-13-12-10-12-13~-(12-11-10-11-12-)-
 ---------------------------------------------------------------------
 ---------------------------------------------------------------------
 ---------------------------------------------------------------------
 ---------------------------------------------------------------------

 ---------------------------------------------12-13/15-15~--
 -12-10~-12-13~-12------12-13-12-----12-13-15---------------
 -------------------14~-----------14------------------------
 -----------------------------------------------------------
 -----------------------------------------------------------
 -----------------------------------------------------------

 --13~-15-13-12-13-12-----12----------------------------------
 ---------------------15------15-13-15-13-12-13-12------------
 ---------------------------------------------------14~-14~---
 -------------------------------------------------------------
 -------------------------------------------------------------
 -------------------------------------------------------------

 ------------------------12-------12-------12-13/15-15---
 ------12-13----12-13-15----13-15----13-15---------------
 --14~-------14------------------------------------------
 --------------------------------------------------------
 --------------------------------------------------------
 --------------------------------------------------------

 --13~-15-13-12-13-12-----12----------------------------------
 ---------------------15------15-13-15-13-12-13-12------------
 ---------------------------------------------------14~-14~---
 -------------------------------------------------------------
 -------------------------------------------------------------
 -------------------------------------------------------------
          ¿Donde estas?
E|------------------------------------------------------------------
B|-----1----------1----------0----------0----------3----------3-----
G|-------0----------0----------0----------0----------0----------0---
D|---2-----2----2-----2----2-----2----2-----2----2-----2----2-----2-
A|-3----------3----------3----------3----------3----------3---------
E|------------------------------------------------------------------
    tengo miedo, ayudame a caminar
E|------------------------------------------------------------------
B|-----1----------1----------0----------0----------3----------3-----
G|-------2----------2----------2----------2----------2----------2---
D|---2-----2----2-----2----2-----2----2-----2----2-----2----2-----2-
A|-0----------0----------0----------0----------0-----------0--------
E|------------------------------------------------------------------
   pues nunca solo yo podre encontrar
E|------------------------------------------------------------------
B|-----1----------1----------0----------0----------3----------3-----
G|-------0----------0----------0----------0----------0----------0---
D|---2-----2----2-----2----2-----2----2-----2----2-----2----2-----2-
A|-3----------3----------3----------3----------3----------3---------
E|------------------------------------------------------------------
     la forma de ser libre, quiero descansar
E|------------------------------------------------------------------
B|-----1----------1----------0----------0----------3----------3-----
G|-------2----------2----------2----------2----------2----------2---
D|---2-----2----2-----2----2-----2----2-----2----2-----2----2-----2-
A|-0----------0----------0----------0----------0-----------0--------
E|------------------------------------------------------------------
          pensando en ti
E|------------------------------------------------------------------
B|-----1----------1----------0----------0----------3----------3-----
G|-------0----------0----------0----------0----------0----------0---
D|---2-----2----2-----2----2-----2----2-----2----2-----2----2-----2-
A|-3----------3----------3----------3----------3----------3---------
E|------------------------------------------------------------------
    duermo el odio pensando en ti
E|------------------------------------------------------------------
B|-----1----------1----------0----------0----------3----------3-----
G|-------2----------2----------2----------2----------2----------2---
D|---2-----2----2-----2----2-----2----2-----2----2-----2----2-----2-
A|-0----------0----------0----------0----------0-----------0--------
E|------------------------------------------------------------------
         ( paso el dia pensando en ti )
E|------------------------------------------------------------------
B|-----1----------1----------0----------0----------3----------3-----
G|-------0----------0----------0----------0----------0----------0---
D|---2-----2----2-----2----2-----2----2-----2----2-----2----2-----2-
A|-3----------3----------3----------3----------3----------3---------
E|------------------------------------------------------------------
          paso el dia pensando en ti
E|------------------------------------------------------------------
B|-----1----------1----------0----------0----------3----------3-----
G|-------2----------2----------2----------2----------2----------2---
D|---2-----2----2-----2----2-----2----2-----2----2-----2----2-----2-
A|-0----------0----------0----------0----------0-----------0--------
E|------------------------------------------------------------------
          ( paso el dia pensando en ti )
E|------------------------------------------------------------------
B|-----1----------1----------0----------0----------3----------3-----
G|-------0----------0----------0----------0----------0----------0---
D|---2-----2----2-----2----2-----2----2-----2----2-----2----2-----2-
A|-3----------3----------3----------3----------3----------3---------
E|------------------------------------------------------------------
          paso el dia pensando en ti
E|------------------------------------------------------------------
B|-----1----------1----------0----------0----------3----------3-----
G|-------2----------2----------2----------2----------2----------2---
D|---2-----2----2-----2----2-----2----2-----2----2-----2----2-----2-
A|-0----------0----------0----------0----------0-----------0--------
E|------------------------------------------------------------------



 (Este final es casi lo mismo del solo con violin
 este si lleva mucho efecto con el pedal)

 final:

E|-12~-10---------10~-----------------------------------------------------
B|--------13-12-13---13-12-10-12-13~-12-10~-12-13-12----------------------
G|---------------------------------------------------14-12-14-12----------
D|---------------------------------------------------------------14-12-14~
A|------------------------------------------------------------------------
E|------------------------------------------------------------------------

 -10~---------10~------------------------------------------------------
 ----13-12-13----13-12-10-12-13~-12-10~-12-13~-12---12-13-12--12-13-15-
 ------------------------------------------------14~--------14---------
 ----------------------------------------------------------------------
 ----------------------------------------------------------------------
 ----------------------------------------------------------------------

 ---12-13/15-15~------
 ---------------------
 ---------------------
 ---------------------
 ---------------------
 ---------------------



 --13~-15-13-12-13-12-----12----------------------------------
 ---------------------15------15-13-15-13-12-13-12------------
 ---------------------------------------------------14~-14~---
 -------------------------------------------------------------
 -------------------------------------------------------------
 -------------------------------------------------------------

 ------------------------12-------12-------12-13/15-15---
 ------12-13----12-13-15----13-15----13-15---------------
 --14~-------14------------------------------------------
 --------------------------------------------------------
 --------------------------------------------------------
 --------------------------------------------------------

 --13~-15-13-12-13-12-----12----------------------------------
 ---------------------15------15-13-15-13-12-13-12------------
 ---------------------------------------------------14~-14~---
 -------------------------------------------------------------
 -------------------------------------------------------------
 -------------------------------------------------------------

Que te parecio? Calificalo con estrellas!!

Rating: 5.2/10 (44 votos)

Este fichero es trabajo propio de su transcriptor y representa su interpretación personal de la canción. El material contenido en esta página es para exclusivo uso privado, por lo que se prohibe su reproducción o retransmisión, así como su uso para fines comerciales.


Comentario de JECF
sta cancion se la dedico al amor de mi vida .............. mi novia
Deja tus comentarios:

Letras de Mago De Oz
Letras de canciones | Musica Independiente