Enviado por: pipexoxd
Agrandar Letra
Reducir Letra
Imprimir











John Lennon, Imagine

Aqui les traigo el famoso exito de John Lennon


Intro:

E-----------------|-------------|-------|
B-3-----------0---|-------------|-----0-|
G-0---0---0---0---|-2---2---2---|-2-3---|
D-----2---2-------|-2---3---3---|-------|
A-3-3---3---3---3-|-3-3---3---3-|-------|
E-----------------|-------------|-------|

E-----------------|-------------|-------|
B-3-----------0---|-------------|-----0-|
G-0---0---0---0---|-2---2---2---|-2-3---|
D-----2---2-------|-2---3---3---|-------|
A-3-3---3---3---3-|-3-3---3---3-|-------|
E-----------------|-------------|-------|

Verso 1:

E-----------------|-------------|-------|
B-3-----------0---|-------------|-----0-|
G-0---0---0---0---|-2---2---2---|-2-3---|
D-----2---2-------|-2---3---3---|-------|
A-3-3---3---3---3-|-3-3---3---3-|-------|
E-----------------|-------------|-------|

E-----------------|-------------|-------|
B-3-----------0---|-------------|-----0-|
G-0---0---0---0---|-2---2---2---|-2-3---|
D-----2---2-------|-2---3---3---|-------|
A-3-3---3---3---3-|-3-3---3---3-|-------|
E-----------------|-------------|-------|

E-----------------|-------------|-------|
B-3-----------0---|-------------|-----0-|
G-0---0---0---0---|-2---2---2---|-2-3---|
D-----2---2-------|-2---3---3---|-------|
A-3-3---3---3---3-|-3-3---3---3-|-------|
E-----------------|-------------|-------|

E-----------------|-----------------|
B-3-----------0---|-----------------|
G-0---0---0---0---|-2---2---2---2---|
D-----2---2-------|-2---3---3---3---|
A-3-3---3---3---3-|-3-3---3---3---3-|
E-----------------|-----------------|

Coro:

E-------------0---|-1---1---1---1---|-------------0---|-1-|
B-1---1---1---1---|-1---1---1---1---|-3---3---3---1---|-0-|
G-2---2---2---2---|-2---2---2---2---|-0---0---0---0---|-0-|
D-3---3---2-------|-0-0---0---------|-0---0---0-------|---|
A-----------------|---------3-3---3-|-----------------|---|
E-1-1---1-0-0---0-|-----------------|-3-3---3-3-3---3-|-3-|

Verso 2:

E-----------------|-------------|-------|
B-3-----------0---|-------------|-----0-|
G-0---0---0---0---|-2---2---2---|-2-3---|
D-----2---2-------|-2---3---3---|-------|
A-3-3---3---3---3-|-3-3---3---3-|-------|
E-----------------|-------------|-------|

E-----------------|-------------|-------|
B-3-----------0---|-------------|-----0-|
G-0---0---0---0---|-2---2---2---|-2-3---|
D-----2---2-------|-2---3---3---|-------|
A-3-3---3---3---3-|-3-3---3---3-|-------|
E-----------------|-------------|-------|

E-----------------|-------------|-------|
B-3-----------0---|-------------|-----0-|
G-0---0---0---0---|-2---2---2---|-2-3---|
D-----2---2-------|-2---3---3---|-------|
A-3-3---3---3---3-|-3-3---3---3-|-------|
E-----------------|-------------|-------|

E-----------------|-----------------|
B-3-----------0---|-----------------|
G-0---0---0---0---|-2---2---2---2---|
D-----2---2-------|-2---3---3---3---|
A-3-3---3---3---3-|-3-3---3---3---3-|
E-----------------|-----------------|

Coro:

E-------------0---|-1---1---1---1---|-------------0---|-1-|
B-1---1---1---1---|-1---1---1---1---|-3---3---3---1---|-0-|
G-2---2---2---2---|-2---2---2---2---|-0---0---0---0---|-0-|
D-3---3---2-------|-0-0---0---------|-0---0---0-------|---|
A-----------------|---------3-3---3-|-----------------|---|
E-1-1---1-0-0---0-|-----------------|-3-3---3-3-3---3-|-3-|

Puente:

E-----------------|-----------------|
B---------0---0---|-1---0---0---3---|
G-2---2---0---0---|-0---0---1---1---|
D-3---3---0---0---|-2---2---2---2---|
A-3---3-----------|-3-3---3---------|
E-1-1---1-3-3---3-|---------0-0---0-|

E-----------------|-----------------|
B---------0---0---|-1---0---0---3---|
G-2---2---0---0---|-0---0---1---1---|
D-3---3---0---0---|-2---2---2---2---|
A-3---3-----------|-3-3---3---------|
E-1-1---1-3-3---3-|---------0-0---0-|

E-----------------|-----------------|
B---------0---0---|-1---0---0---3---|
G-2---2---0---0---|-0---0---1---1---|
D-3---3---0---0---|-2---2---2---2---|
A-3---3-----------|-3-3---3---------|
E-1-1---1-3-3---3-|---------0-0---0-|

E-----------------|-----------------|
B---------0---0---|-1---1---1---1-1-|
G-2---2---0---0---|-0-------------0-|
D-3---3---0---0---|-2-------------2-|
A-3---3-----------|-3-----0---2---3-|
E-1-1---1-3-3---3-|---3-------------|

Verso 3:

E-----------------|-------------|-------|
B-3-----------0---|-------------|-----0-|
G-0---0---0---0---|-2---2---2---|-2-3---|
D-----2---2-------|-2---3---3---|-------|
A-3-3---3---3---3-|-3-3---3---3-|-------|
E-----------------|-------------|-------|

E-----------------|-------------|-------|
B-3-----------0---|-------------|-----0-|
G-0---0---0---0---|-2---2---2---|-2-3---|
D-----2---2-------|-2---3---3---|-------|
A-3-3---3---3---3-|-3-3---3---3-|-------|
E-----------------|-------------|-------|

E-----------------|-------------|-------|
B-3-----------0---|-------------|-----0-|
G-0---0---0---0---|-2---2---2---|-2-3---|
D-----2---2-------|-2---3---3---|-------|
A-3-3---3---3---3-|-3-3---3---3-|-------|
E-----------------|-------------|-------|

E-----------------|-----------------|
B-3-----------0---|-----------------|
G-0---0---0---0---|-2---2---2---2---|
D-----2---2-------|-2---3---3---3---|
A-3-3---3---3---3-|-3-3---3---3---3-|
E-----------------|-----------------|

Coro:

E-------------0---|-1---1---1---1---|-------------0---|-1-|
B-1---1---1---1---|-1---1---1---1---|-3---3---3---1---|-0-|
G-2---2---2---2---|-2---2---2---2---|-0---0---0---0---|-0-|
D-3---3---2-------|-0-0---0---------|-0---0---0-------|---|
A-----------------|---------3-3---3-|-----------------|---|
E-1-1---1-0-0---0-|-----------------|-3-3---3-3-3---3-|-3-|

Puente:

E-----------------|-----------------|
B---------0---0---|-1---0---0---3---|
G-2---2---0---0---|-0---0---1---1---|
D-3---3---0---0---|-2---2---2---2---|
A-3---3-----------|-3-3---3---------|
E-1-1---1-3-3---3-|---------0-0---0-|

E-----------------|-----------------|
B---------0---0---|-1---0---0---3---|
G-2---2---0---0---|-0---0---1---1---|
D-3---3---0---0---|-2---2---2---2---|
A-3---3-----------|-3-3---3---------|
E-1-1---1-3-3---3-|---------0-0---0-|

E-----------------|-----------------|
B---------0---0---|-1---0---0---3---|
G-2---2---0---0---|-0---0---1---1---|
D-3---3---0---0---|-2---2---2---2---|
A-3---3-----------|-3-3---3---------|
E-1-1---1-3-3---3-|---------0-0---0-|

E-----------------|-----------------|
B---------0---0---|-1---1---1---1-1-|
G-2---2---0---0---|-0-------------0-|
D-3---3---0---0---|-2-------------2-|
A-3---3-----------|-3-----0---2---3-|
E-1-1---1-3-3---3-|---3-------------|
Aviso: Este fichero es trabajo propio de su transcriptor y representa su interpretación personal de la canción. El material contenido en esta página es para exclusivo uso privado, por lo que se prohibe su reproducción o retransmisión, así como su uso para fines comerciales.
comentario del colaborador: www.guitarprotabs.org

Califica esta canción


Comentarios en Facebook