Enviado por: alekamusic
Agrandar Letra
Reducir Letra
Imprimir

Acordes:
½ tono
| +0 |
½ tono
||
Volver

Otras Versiones de Innocence:

Avril Lavigne, Innocence

Intro:C#m A 


E||---------------------------|---------------------------||
B||---------4--5--4--0--4--5--|--------4--5--4--0--2------||
G||---------------------------|---------------------------||
D||---------------------------|---------------------------||
A||----4----------------------|--0------------------------||
E||---------------------------|---------------------------||

C#m                A 
Waking up I see that everything is ok
C#m                   A 
The first time in my life and now it\'s so great
C#m                   A 
Slowing down I look around and I am so amazed
C#m                 A                           B
I think about the little things that make life great
                  A 
I wouldn\'t change a thing about it
B                   A 
This is the best feeling

Refrão:
C#m          A            E       B
  This innocence is brilliant, I hope that it will stay
C#m          A       E       B
  This moment is perfect, please don\'t go away
C#m  A        E   B
  I need you now
             A             B
  And I\'ll hold on to it, don\'t you let it pass you by

E||---------------------------|---------------------------||
B||---------4--5--4--0--4--5--|--------4--5--4--0--2------||
G||---------------------------|---------------------------||
D||---------------------------|---------------------------||
A||----4----------------------|--0------------------------||
E||---------------------------|---------------------------||

C#m                  A 
I found a place so safe, not a single tear
C#m                   A 
The first time in my life and now it\'s so clear
C#m           A 
Feel calm I belong, I\'m so happy here
C#m                 A                     B
It\'s so strong and now I let myself be sincere
                  A 
I wouldn\'t change a thing about it
B                   A 
This is the best feeling


Refrão:
C#m          A            E       B
  This innocence is brilliant, I hope that it will stay
C#m          A       E       B
  This moment is perfect, please don\'t go away
C#m  A        E   B
  I need you now
             A             B
  And I\'ll hold on to it, don\'t you let it pass you by

A                            E
It\'s the state of bliss you think you\'re dreaming
B                  C#m                       
It\'s the happiness inside that you\'re feeling
A                     E             B   C#m     
It\'s so beautiful it makes you wanna cry
A                            E
It\'s the state of bliss you think you\'re dreaming
B                  C#m                       
It\'s the happiness inside that you\'re feeling
A                     E             B   C#m     
It\'s so beautiful it makes you wanna cry

It\'s so beautiful it makes you want to cry


REFRÃO:
C#m          A            E       B
  This innocence is brilliant, I hope that it will stay
C#m          A       E       B
  This moment is perfect, please don\'t go away
C#m  A        E   B
  I need you now
             A             B
  And I\'ll hold on to it, don\'t you let it pass you by.

E||---------------------------|---------------------------||
B||---------4--5--4--0--4--5--|--------4--5--4--0--2------||
G||---------------------------|---------------------------||
D||---------------------------|---------------------------||
A||----4----------------------|--0------------------------||
E||---------------------------|---------------------------||

E||--0----------------||
B||--2----------------||
G||--1----------------||
D||--2----------------||
A||--0----------------||
E||--0----------------||
Aviso: Este fichero es trabajo propio de su transcriptor y representa su interpretación personal de la canción. El material contenido en esta página es para exclusivo uso privado, por lo que se prohibe su reproducción o retransmisión, así como su uso para fines comerciales.

Califica esta canción


Comentarios en Facebook