Enviado por:
onmusic

Sin Bandera, Abc

Imprimir
Intro:
           D       A                                   D A2
E----------------------------------------------------0------------
A------------------0-------------------------------------0--------
D----------0---------2-------------4-2-2/4/2-----------0----------
G------------2---------2---------2-----------------2-0-2-2-2-----2
B----3-2-3-----3---------2---3-2---------------3-2---0-3-0---0---0
e--0-------------2---------0-----------------0-------0-2-0-----0-0


A                      F#m
Nacen mis mejores Madrugadas
                D                      A
de tu 'M' de Mujer, Maravillosa y Magica.
A                     F#m
Nacen mis Amores y Alegrias,
                    D
de tu 'A' de Angel divino
                   A
que me vino a visitar

         F#M                  E
Nacen tambien de tu 'L' de Locura,
                        D
las mas bellas Lunas Llenas
                     A
que he podido yo mirar
        F#m                       E
y de tu 'C' nace un cielo de cometas
                        D
y de estrellas que Completan
                    E
mi Constelacion de amar

Coro:
              D               A
Te nace un Mar con 'M' de Milagro
              D                         E
y un sol que sale por sorpresa desde el Sur.
              D                         A  F#M
Puede escribir lo que es hoy tu abecedario
        G                  E
darme toda la poesia y corregir la ortografia...
       A
De mi amor.
  A        D   A        D    E
E-------------------------------------
A-------------------------------------
D-------------------------------------
G----------2------------2-------------
B------3-2----------3-2---------------
e----0-------------0------------------

Nace Siempre, simple y suavemente
de tu 'S' de Silencio,
esta adoracion por ti.
Nace de tu 'Z' ese zumbido
que aun escucho en mis oidos
de ese beso que te di,
y de tu 'V' nacen mis ganas de verte
un Valor que me hace fuerte y una Vida que Vivir

Coro:
Te nace un Mar con 'M' de Milagro
y un sol que sale por sorpresa desde el Sur.
Puede escribir lo que es hoy tu abecedario
darme toda la poesia y corregir la ortografia...

      D        A
ayudarme en la lectura
       F#m            E
en las frases de tu piel
      D           A             E
asentuarme la ternura y el placer.
      D           A
Poner el punto y aparte,
     F#m           E
el dolor que ya paso
        G                            Esus   E
y escribir la introduccion para este amor.


Te nace un Mar con 'M' de Milagro
y un sol que sale por sorpresa desde el Sur.
Puede escribir lo que es hoy tu abecedario,
darme toda la poesia y corregir la ortografia...
De mi amor..
Aviso: Este fichero es trabajo propio de su transcriptor y representa su interpretación personal de la canción. El material contenido en esta página es para exclusivo uso privado, por lo que se prohibe su reproducción o retransmisión, así como su uso para fines comerciales.

Califica esta canción


Comentarios en Facebook