Enviado por: 77GuiLLe77
Agrandar Letra
Reducir Letra
Imprimir


Otras Versiones de Siga El Baile:




Los Autenticos Decadentes, Siga El Baile

|--9---9-9-9-9-9------10----------------------------9-------|
|------------------12--------12---12-12-12-12-12-10---------|
|-----------------------------------------------------------|
|-----------------------------------------------------------|
|-----------------------------------------------------------|
|-----------------------------------------------------------|

|-------------------------8-------------------------------9----|
|--14---14-14-14-14-14-12----12----10---10-10-10-10-10-12---10-|
|--------------------------------------------------------------|
|--------------------------------------------------------------|
|--------------------------------------------------------------|
|--------------------------------------------------------------|

es mi primera cancion q saco de oido y q subo a esta pagina espero q les guste ;)
Aviso: Este fichero es trabajo propio de su transcriptor y representa su interpretación personal de la canción. El material contenido en esta página es para exclusivo uso privado, por lo que se prohibe su reproducción o retransmisión, así como su uso para fines comerciales.
comentario del colaborador: Punteo de siga el baile de los autenticos decadentes

Califica esta canción


Comentarios en Facebook