Enviado por: chicloso
Agrandar Letra
Reducir Letra
Imprimir


Otras Versiones de Cigaro:









System Of A Down, Cigaro

Parte 1 del intro y coros
||----------------------------------|----------------------------------------||
||o---------------------------------|---------------------------------------o||
||----------------------------------|----------------------------------------||
||--0-0-1p0-0-0-1p0-0-0-1p0-0-0-1p0-|-0-0-1p0-0-0-1p0------------------------||
||o-0-0-1p0-0-0-1p0-0-0-1p0-0-0-1p0-|-0-0-1p0-0-0-1p0--7-6-4-6-4-2-4-2------o||
||--0-0-1p0-0-0-1p0-0-0-1p0-0-0-1p0-|-0-0-1p0-0-0-1p0------------------------||

Parte 2
|---------------------------------|------------------------------------|
|---------------------------------|------------------------------------|
|---------------------------------|------------------------------------|
|---------------------------------|------------------------------------|
|-1-0-1-0-1-0-1-0-1-0-1-0-1-0-1-0-|-1-0-1-0-1-0-1-0-7-6-4-6-4-2-4-2-|
|-1-0-1-0-1-0-1-0-1-0-1-0-1-0-1-0-|-1-0-1-0-1-0-1-0--------------------|
                                  
|---------------------------------|---------------------------------------|
|---------------------------------|---------------------------------------|
|---------------------------------|---------------------------------------|
|---------------------------------|---------------------------------------|
|-1-0-1-0-1-0-1-0-1-0-1-0-1-0-1-0-|-1-0-1-0-1-0-1-0-7-6-4-6-4-2-4-2----|
|-1-0-1-0-1-0-1-0-1-0-1-0-1-0-1-0-|-1-0-1-0-1-0-1-0-----------------------|


  Verso-1:
|----------------||
|----------------||
|----------------||
|-1-1-1----------||
|-1-1-1----------||
|-1-1-1----------||


|------------------------------------------------||
|------------------------------------------------||
|-----------------------------------1-1-1--------||
|11-10-11-10---8-7-8-7----4-3--4-3?-1-1-1--------||
|-9/-8--9/-8---6/5-6/5----2/1--2/1?-1-1-1--------||
|------------------------------------------------||

coro:
|----------------------------------|----------------------------------------||
|o---------------------------------|---------------------------------------o||
|----------------------------------|----------------------------------------||
|--0-0-1p0-0-0-1p0-0-0-1p0-0-0-1p0-|-0-0-1p0-0-0-1p0------------------------||
|o-0-0-1p0-0-0-1p0-0-0-1p0-0-0-1p0-|-0-0-1p0-0-0-1p0--7-6-4-6-4-2-4-2------o||
|--0-0-1p0-0-0-1p0-0-0-1p0-0-0-1p0-|-0-0-1p0-0-0-1p0------------------------||



 Alternate Chorus:
|---------------------------------------------||
|---------------------------------------------||
|---------------------------------------------||
|---------------------------------------------||
|-767676767676767676767676--7-6-4-6-4-2-4-2---||
|---------------------------------------------||
Intermedio:
 
||----------------------------------|---------------------------------|
||o-----6-------6-------6-------6---|-6-5-6-5-------------------------|
||------7-------7-------7-------7---|---------7-6-7-6-----------------|
||--0-0-0---0-0-0---0-0-0---0-0-0---|-----------------8-7-8-7-5-3-5-3-|
||o-0-0-----0-0-----0-0-----0-0-----|---------------------------------|
||--0-0-----0-0-----0-0-----0-0-----|---------------------------------|
  
|---------------------------------|----------------------------------||
|---------------------------------|-6-5-6-5-------------------------o||
|---------------------------------|---------7-6-7-6------------------||
|---------------------------------|-----------------8-7-8-0-5-3-5-3--||
|-0-0-0-0-0-0-0-0-0-0-0-0-0-0-0-0-|---------------------------------o||
|-0-0-0-0-0-0-0-0-0-0-0-0-0-0-0-0-|----------------------------------||

||----------------------------------|---------------------------------|
||o-----6-------6-------6-------6---|-6-5-6-5-------------------------|
||------7-------7-------7-------7---|---------7-6-7-6-----------------|
||--0-0-0---0-0-0---0-0-0---0-0-0---|-----------------8-7-8-7-5-3-5-3-|
||o-0-0-----0-0-----0-0-----0-0-----|---------------------------------|
||--0-0-----0-0-----0-0-----0-0-----|---------------------------------|
  
|---------------------------------|---------------------------------||
|-6-5-6-5-------------------------|-6-5-6-5-------------------------||
|---------7-6-7-6-----------------|---------7-6-7-6-----------------||
|-----------------8-7-8-0-5-3-5-3-|-----------------8-7-8-0-5-3-5-3-||
|---------------------------------|---------------------------------||
|---------------------------------|---------------------------------||


Parte despues del intermedio:
|------------------------------------------------||
|------------------------------------------------||
|-----------------------------------------1------||
|--------------------------------------0---------||
|-9898-11-10-11-10-6565-7676-21212121------------||
|------------------------------------------------||
(es 11-10 no 1-1-1-0:?)

Final

|---------------------------------|---------------------------------|
|---------------------------------|---------------------------------|
|---------------------------------|---------------------------------|
|---------------------------------|---------------------------------|
|-0-0-0-----------0-0-0-----------|-0-0-0-----------0-0-0---0-0-0---|
|-0-0-0-----------0-0-0-----------|-0-0-0-----------0-0-0---0-0-0---|


 
|---------------------------------|-----------------------------------------|
|---------------------------------|-----------------------------------------|
|---------------------------------|-----------------8-8-8-8-8-8-8-8-8-8-8-8-|
|---------------------------------|-----------------8-8-8-8-8-8-8-8-8-8-8-8-|
|-0-0-0---0-0-0---0-0-0---0-0-0---|-0-0-0---0-0-0---6-6-6-6-6-6-6-6-6-6-6-6-|
|-0-0-0---0-0-0---0-0-0---0-0-0---|-0-0-0---0-0-0---------------------------|

|---------------------------------|
|---------------------------------|
|-8-------------------------------|
|-8-------------------------------|
|-6-------------------------------|
|---------------------------------|

letra?
My cock is much bigger than yours, 
My cock can walk right through the door 
With a feeling so pure.. 
It's got you screaming for more. 
Cool, in denial 
We're the cruel regulators smoking 
CIGARO CIGARO CIGARO 
Cool, in denial 
We're the cruel regulators smoking 
CIGARO CIGARO CIGARO 
My shit stinks much better than yours, 
My stinks right down through the floor. 
With a feeling so pure, 
It's got you coming back for more. 
Cool, in denial 
We're the cruel regulators smoking 
CIGARO CIGARO CIGARO 
Cool, in denial 
We're the cruel regulators smoking 
CIGARO CIGARO CIGARO 
Cool, in denial 
We're the cruel regulators smoking 
CIGARO CIGARO CIGARO 
Cool, in denial 
We're the cruel regulators smoking 
CIGARO CIGARO CIGARO 
Can't you see that I love my cock? 
Can't you see that you love my cock? 
Can't you see that we love my cock? 
We're the regulators that de-regulate 
We're the animators that de-animate 
We're the propagators of all genocide 
Burning through the world's resources, then we turn and hide 
Cool, in denial 
We're the cruel regulators smoking 
CIGARO CIGARO CIGARO 
Cool, in denial 
We're the cruel regulators smoking 
CIGARO CIGARO CIGARO 
We're the regulators that de-regulate 
We're the animators that de-animate 
Cool, in denial 
We're the cruel regulators smoking 
CIGARO CIGARO CIGARO Cool, in denial We're the cruel regulators smoking 
CIGARO CIGARO CIGARO 

My cock is much bigger than yours, 
My cock can walk right through the door 
With a feeling so pure.. 
It's got you screaming back for more!
Aviso: Este fichero es trabajo propio de su transcriptor y representa su interpretación personal de la canción. El material contenido en esta página es para exclusivo uso privado, por lo que se prohibe su reproducción o retransmisión, así como su uso para fines comerciales.
comentario del colaborador: eta va por ti peluchin mi mejer amigode la secundaria... saludos a Daron Malakian soy tu fan (les dejo la letra por si las dudas) COMENTEN POR LO MENOS ||||AGUANTE S.O.A.D|||||||||||||||||||||||||||||

Califica esta canción


Comentarios en Facebook