Enviado por: nachitto
Agrandar Letra
Reducir Letra
Imprimir






Klaus Badelt, He\'s A Pirate

----------------------------------------------------
	            He\'s a Pirate
----------------------------------------------------




e|--------------------------------------------------------------------------------------|
B|--------------------------------------------------------------------------------------|
G|--------------------------------------------------------------------------------------|
D|-----------5--------------------5------------------------55-5h788757------57----------|X2
A|-55-57/88-8-875------55-57/88-8-875-5--555h8-----55-5h8-----------5-88----5-878857--|
E|----------------888/10---------------8------------------------------------------------|

e|---------------------------------------------------------------------------------|
B|---------------------------------------------------------------------------------|
G|--------02------3----------------------------------------------------------------|
D|-0233-----2------3---------------------------------------------------------------|
A|-----------30-----41-00-11-33----------------------------------------------------|
E|---------------------------------------------------------------------------------|

e|-----------------------------------------------------------------------------|
B|-----------------------------------------------------------------------------|
G|-999/109-7777-9-999-10-9-7542----------------------------------------------|
D|-777/8-7-5555/7-777/8--7-5320----------------------------------------------|
A|-----------------------------------------------------------------------------|
E|-----------------------------------------------------------------------------|

e|--------------------------------------------------------------------------|
B|--------------------------------------------------------------------------|
G|--------------------------------------------------------------------------|
D|----5h75-------5h7p5--575------------------5h75--575------5578--5-5-------|
A|--58------87/8-----8------87875h7p5-5---58----8----85-5h8----5--8-75-7---|
E|-8----------------------------------8---8------------------------------8--|

e|-56-55553-31-0100----|
B|-56-66663-31-0100----|
G|-67-55554-42-12117---|
D|-78-77775-53-23227---|
A|-----------------5---|
E|---------------------|
 e|-56-558--53-31-010--|
B|-56-668--53-31-010---|
G|-67-559--64-42?1217--|
D|-78-7710-75-53-2327--|
A|------------------5--|
E|---------------------|



Espero que les guste 
Slaudos :)
Aviso: Este fichero es trabajo propio de su transcriptor y representa su interpretación personal de la canción. El material contenido en esta página es para exclusivo uso privado, por lo que se prohibe su reproducción o retransmisión, así como su uso para fines comerciales.

Califica esta canción


Comentarios en Facebook