Enviado por: fherxo
Agrandar Letra
Reducir Letra
Imprimir






Zoe, Luna

BAJO EMPIEZA EN EL PRIMER CORO:  0:49
CORO:
G-----------------------------------------|
D-----------------------------------------|
A-----------------------------------------|
E-1~---3~---1~---3~---1~---3~---1~---3~---|

INTRO:
G-----------------------------------------|
D-----------------------------------------|
A-----------------------------------------|
E-1~---3~---5~---3~---1~---3~---5~---3~---|

VERSO:
G--------------------------------|
D--------------------------------|
A--------------------------------|
E-1~---3~---5~---7~---9~---10/---|

G-----------------------------------------|
D-----------------------------------------|
A-----------------------------------------|
E-1~---3~---5~---3~---1~---3~---5~---3~---|

G-----------------------------------------|
D-----------------------------------------|
A-----------------------------------------|
E-1~---3~---5~---3~---1~---3~---5~---3~---|

G---------------------|
D---------------------|
A---------------------|
E-1~---3~---1~---3~---|

CORO:
G-----------------------------------------|
D-----------------------------------------|
A-----------------------------------------|
E-1~---3~---1~---3~---1~---3~---1~---3~---|

FINAL:
G-----------------------------------------|
D-----------------------------------------|
A-----------------------------------------|
E-1~---3~---5~---3~---1~---3~---5~---3~---|
                                             x2
G---------------------------------|
D---------------------------------|
A---------------------------------|
E-1~---3~---5~---7~---9~---10/~---|
Aviso: Este fichero es trabajo propio de su transcriptor y representa su interpretación personal de la canción. El material contenido en esta página es para exclusivo uso privado, por lo que se prohibe su reproducción o retransmisión, así como su uso para fines comerciales.

Califica esta canción


Comentarios en Facebook