Enviado por:
franco maxi

Soda Stereo, Danza Rota

Imprimir
aca les dejo todoooooooooo


Intro

E -0-(X8)---------------------------------------------I

G ----------------------------------------------------I
D --------------4-5-7--7------------------------------I
A ------------5-----------33333-3-22222---------------I
E -5-5-5-5--5---------------------------0-1-3---------I

G ----------------------------------------------------I
D ----------------------------------------------------I
A ------------55555-5--5--33333-3--22222--------------I
E -55555-5--5----------------------------0-1-3--------I

G ----------------------------------------------------I
D --------------4-5-7--7------------------------------I
A ------------5-----------33333-3-22222---------------I
E -5-5-5-5--5---------------------------0-1-3---------I

G ----------------------------------------------------I
D ----------------------------------------------------I
A ------------55555-5--5--33333-3--22222--------------I
E -55555-5--5-----------------------------------------I


Estrofa I
G ----------------------------------------------------I
D ----------------------------------------------------I   x2
A -3h5s-(x2)--2h3s--3---------------------------------I
E --------------------1-------------------------------I

G ----------------------------------------------------I
D ----------------------------------------------------I
A ----------------------------------------------------I
E -55555-5-55--33333-3-33--33333-3-33--11111-1-33-----I

G ----------------------------------------------------I
D ----------------------------------------------------I
A ----------------------------------------------------I
E -55555-5-55--33333-3-33--33333-3-33--11111----------I


Coro
G ----------------------------------------------------I
D ----------------------------------------------------I
A ------------55555-5--5--33333-3--22222--------------I
E -55555-5--5----------------------------0-1-3--------I

G ----------------------------------------------------I
D --------------4-5-7--7------------------------------I
A ------------5-----------33333-3-22222---------------I
E -5-5-5-5--5-----------------------------------------I


Estrofa II
G ----------------------------------------------------I
D ----------------------------------------------------I
A -3h5s-(x2)--2h3s--3---------------------------------I
E --------------------1-------------------------------I


G ----------------------------------------------------I
D ----------------------------------------------------I
A ----------------------------------------------------I
E -55555-5-55--33333-3-33--33333-3-33--11111----------I


Repite Coro x2


Puente (¡Danza Rota!)
G ----------------------------------------------------I
D ----------------------------------------------------I
A ---------------3--3--3--3---------------------------I
E -3-3--1-1--3-3--------------------------------------I

Punteo Guitarra
G ----------------------------------------------------I
D ----555-5-----555-5-----555-5----777-7--------------I
A ----------------------------------------------------I
E -3---------3---------3---------5--------------------I

G ----------------------------------------------------I
D ----555-5-----555-5-----555-5------------15---------I
A ----------------------------------------------------I
E -3---------3---------3---------12-12-12-------------I


Dame...

G ----------------------------------------------------I
D ----------------------------------5-3-2-------------I
A -55555-5-5--------------------5-7-------5-3-2------------------10(x12)-I
E -----------33333-3-3--11111-1-----------------55555-5--11111-1---------I

Dame una pista...
G ----------------------------------------------------I
D ----------------------------------------------------I
A -55555-5-5------------------------------------------I
E -----------33333-3-3--11111-1-----------------------I

Estoy bailando...
G ----------------------------------------------------I
D ----------------------------------------------------I
A -55555-5-5------------------------------------------I
E -----------33333-3-3--11111-1--3(x13)---------------I

capaz hay un error pero minimo estube como 4 horas pa sacarlo chau saludos al coco
Aviso: Este fichero es trabajo propio de su transcriptor y representa su interpretación personal de la canción. El material contenido en esta página es para exclusivo uso privado, por lo que se prohibe su reproducción o retransmisión, así como su uso para fines comerciales.

Califica esta canción


Comentarios en Facebook