Enviado por: rodRI6O
Agrandar Letra
Reducir Letra
Imprimir


Otras Versiones de I Want To Break Free:




Queen, I Want To Break Free

E----------------------|------------------------------------------------|
B----------------------|------------------------------------------------|
G----------11--13--13b-|----------11--13--13b----------13b--------------|
D------14--------------|------14---------------14-----------14----------|
A--14------------------|--14-----------------------14-----------14-12---|
E----------------------|------------------------------------------------|

E----------------------------------|
B--14b-----------------------------|
G-------14-------------------------|
D-----------14--12--11-12-11-------|
A-----------------------------12---|
E----------------------------------|

E------------------------------------------|
B--14b(14)(14)-----------------------------|
G--------------14-----13-------------------|
D-----------------14------14---------------|
A-----------------------------14--12--11---|
E------------------------------------------|

E----------|
B--7b(7)---|
G----------| 4 seconds
D----------|
A----------|
E----------|

E---------------------------------|---------------------------------------|
B--9b(9)------9-------9-----------|---------------------------------------|
G---------9-------9-------9-------|---------------------------------------|
D-----------9-------9-------9-6-6-|--7---6-----------5b(5)--2-0-----------|
A---------------------------------|--------7--------------------2-0-------|
E---------------------------------|----------7-5-4------------------3-0---|
Aviso: Este fichero es trabajo propio de su transcriptor y representa su interpretación personal de la canción. El material contenido en esta página es para exclusivo uso privado, por lo que se prohibe su reproducción o retransmisión, así como su uso para fines comerciales.

Califica esta canción


Comentarios en Facebook