Enviado por: desmadre y mas
Agrandar Letra
Reducir Letra
Imprimir

Acordes:
½ tono
| +0 |
½ tono
||
Volver


System Of A Down, Toxicity

INTRO


6|--------------------------------------------------------------
5|--------------------------------------------------------------
4|--------------------------------------------------------------
3|--------------------------------------------------------------
2|--0-0-0-0-0-0-3-3-3-3-3-3-0-0-0---0----0-3-3-5----3---2-------
1|---2-2-2-2-2-2-5-5-5-5-5-5-2-2-2-3-3-2-2-5-7-7-5-5-3-3--------

SI LA QUIEREN CANTAR CON TABLATURA ES ASI:


6|--------------------------------------------------------------
5|--------------------------------------------------------------
4|--------------------------------------------------------------
3|-------------------11----11--11-------------------------------
2|--0-0-0-0-0-0-3-3-9----10---9----0-0-0---0---0-3-3-5---3---2--
1|---2-2-2-2-2-2-5-9---10----9------2-2-2-3-3-2-2-5-7-7-5-5-3-3-


INTRO

Bm           D 
Conversion, software version 7.0,
Bm                                    F#m
Looking at life through the eyes of a tire hub,
Bm                 D
Eating seeds as a past time activity,
Bm                   D           Db\\F#m
The toxicity of our city, of our city,

CORO

Bm
New, what do you own the world?
                  D        F#m
How do you own disorder, disorder,
Bm
Now, somewhere between the sacred silence,
 D                  F#m
Sacred silence and sleep,
Bm             G                           F#m
Somewhere, between the sacred silence and sleep,
Bm                     G F#m
Disorder, disorder, disorder.

Bm                   D
More wood for their fires, loud neighbors,
Bm                                 D
Flashlight reveries caught in the headlights of a truck,
Bm                 D
Eating seeds as a past time activity,
Bm                   D           Db\\F#m
The toxicity of our city, of our city,

CORO

Bm-Gm\\F#m x6

CORO

Bm        Gm      F#m 
When I became the sun,
   Bm                  Gm    F#m
I shone life into the man\'s hearts,
Bm       Gm       F#m
When I became the sun,
   Bm                 Gm     F#m
I shone life into the man\'s hearts.




espero les guste es la primera que saco
Aviso: Este fichero es trabajo propio de su transcriptor y representa su interpretación personal de la canción. El material contenido en esta página es para exclusivo uso privado, por lo que se prohibe su reproducción o retransmisión, así como su uso para fines comerciales.

Califica esta canción


Comentarios en Facebook