Acordes y tablaturas para guitarra

Acordes y Tablaturas
Usuario: Password:

Buscar:
Acordes y Tablaturas >> Letra L >> Acordes de Los Cantores Del Alba >> Nuestro Juramento
Tablatura de Nuestro Juramento, Los Cantores Del Alba

Nuestro Juramento

Los Cantores Del Alba






Nuestro Juramento
Tablaturas GUTY-10

E -------------|13-12-------|-------------------------------------------
B ------12-15--|-----13-13--|--------------------12-12-12-12-15-15-15-15
G ----13-------|----------14|----------13-13-13-13----------------------
D --14---------|------------|14-14-14-14--------------------------------
A -------------|------------|-------------------------------------------
E -------------|------------|-------------------------------------------

E -13-12-------|-13--14--13--14--12--13--12--13--10--12--10--12---|-----
B ------13-13--|---14--14--14--14--14--14--14--14--14--14--14--14-|-----
G -----------14|--------------------------------------------------|-----
D -------------|--------------------------------------------------|-----
A -------------|--------------------------------------------------|-----
E -------------|--------------------------------------------------|-----
  ----------------------------------------------------------------------
E 8--10--12-|13--14--13--14--12--13--12--13--|12-10-------|12-10------
B 10-12--13-|--14--14--14--14--14--14--14----|----12-11-10|----12-11-10
G ----------|--------------------------------|------------|------------
D ----------|--------------------------------|------------|------------
A ----------|--------------------------------|------------|------------
E ----------|--------------------------------|------------|------------

E ----------12-14--16-16------------------------------------------------
B ---12--15-------------------------------------------------------------
G -13-------------------------------------------------------------------
D ----------------------------------------------------------------------
A ----------------------------------------------------------------------
E ----------------------------------------------------------------------

GUTY-10





Nuestro juramento
(Los Cantores del Alba)

la               la7             re
NO PUEDO VERTE TRISTE PORQUE ME MATA
MI                           la
TU CARITA DE PENA, MI DULCE AMOR,
re                  SOL             do 
ME DUELE TANTO EL LLANTO QUE TU DERRAMAS
 re                FA            MI     la
QUE SE LLENA DE ANGUSTIA MI CORAZON

la              la7               re
YO SUFRO LO INDECIBLE SI TU ENTRISTECES
MI                               la      la7   
NO QUIERO QUE LA DUDA TE HAGA LLORAR 
re            SOL             do
HEMOS JURADO AMARNOS HASTA LA MUERTE
re                FA
Y SI LOS MUERTOS AMAN
           MI              la
DESPUES DE MUERTOS AMARNOS MAS

TABLATURA

ESTRIBILLO
re  la   mi  la   la7

la             la7           re
SI YO MUERO PRIMERO ES TU PROMESA
MI                           la    la7
SOBRE DE MI CADAVER DEJAR CAER
re                  SOL             do 
TODO EL LLANTO QUE BROTE DE TU TRISTEZA
re               FA             MI  
Y QUE TODOS SE ENTEREN DE TU QUERER

la             la7           re
SI TU MUERES PRIMERO YO TE PROMETO
MI                                    la    la7
QUE ESCRIBIRE LA HISTORIA DE NUESTRO AMOR
re                SOL          do 
CON TODA EL ALMA LLENA DE SENTIMIENTO
re               FA               MI             la  re   la    MI   la
LA ESCRBIRE CON SANGRE, CON TINTA SANGRE DEL CORAZOOOOOOOOON.





                                                



                                                                 GUTY-10

Que te parecio? Calificalo con estrellas!!

Rating: 7.4/10 (71 votos)

Este fichero es trabajo propio de su transcriptor y representa su interpretación personal de la canción. El material contenido en esta página es para exclusivo uso privado, por lo que se prohibe su reproducción o retransmisión, así como su uso para fines comerciales.


Comentario de guty1994
cualquier problema cn las tablaturas [email protected]
Deja tus comentarios:
Letras de canciones | Musica Independiente