Enviado por: LuchoSP
Agrandar Letra
Reducir Letra
Imprimir











Attaque 77, Hacelo Por Mi

Hola les traigo esta cancion que me la paso mi profesor de guitarra espeor que les guste , ahi va.


-----------------
-----------------
-----------------  [b]INTRO [/b]    X2
---9-8-6-6-8-9---
---7-6-4-4-6-7---
-----------------


-----------------
-----------------
-----------------                   X2
--9--6----------- 
--7--4--7--9-----
--------5--7-----
    C#m   
  E     A  B

-------------------
-------------------
-------------------   [b]Estribillo[/b]   X2
-----6--------7--4-
--7--4--7--4--5--2-
--5-----5--2-------
    C#m   F#m
  A     A     D  B


Oviamente lo repiten a cada 5ta  como es en la cancion. Las letras son oviamente los acordes :P
Aviso: Este fichero es trabajo propio de su transcriptor y representa su interpretación personal de la canción. El material contenido en esta página es para exclusivo uso privado, por lo que se prohibe su reproducción o retransmisión, así como su uso para fines comerciales.

Califica esta canción


Comentarios en Facebook