Enviado por: crissguitar
Agrandar Letra
Reducir Letra
Imprimir


Otras Versiones de Supe Que Me Amabas:

MARCELA GANDARA, Supe Que Me Amabas

Supe que me amabas de marcela gandara.

1)----5h6-5--------------------5h6-5---------7---------9---
2)--6--------6s8-6h8-6-------6-------6s8-6-8---10-8-10---11
3)---------------------5-5h7-------------------------------
4)---------------------------------------------------------
5)---------------------------------------------------------
6)---------------------------------------------------------

Aqui otra version:

1)----9-8-6--6-4--------9-8-6--4-5-6-5-6-7
2)-8h9----------4-6--8h9------4-----5-----
3)----------------------------------------
4)----------------------------------------
5)----------------------------------------
6)----------------------------------------

Si algo anda mal abisame mi correo es:

[email protected]
Aviso: Este fichero es trabajo propio de su transcriptor y representa su interpretación personal de la canción. El material contenido en esta página es para exclusivo uso privado, por lo que se prohibe su reproducción o retransmisión, así como su uso para fines comerciales.

Califica esta canción


Comentarios en Facebook