Enviado por:
van topos

Camila, Solo Para Ti

Hola amigos es mi segunda publicación espero les guste XD...

    Em7 Dadd9  C9  G#    X    G  D(G) Em(G) Am7   D   Em    C
e----0?---0-?--3----3----3----3----2----3----0----2----0----0-
B?---3-?--3---?3----3----1----0----3----3----1----3----0----1-
G?---0?---2?---0----4----0-?--0----2----0----0----2----0----0-
D----2?---0--?-2----5----2----0----0----2----2?---0----2----2-
A----2?---0?---3----5----0----2----0----2?---0----0----2----3-
E?---0---?0?---0----3----0----3----2----0?---0----0----0----0-

Con capo en el primer traste:..

Los acordes con capo se tocan como si el segundo traste fuera el primero traste.

Este es el arpegio de las primar 2 estrofas...

    (Em7)      (Dadd9)    (C9)      (G#)
e -----------------0-----------------------
B -------3-----------3-------3-------------
G -----0---0-----2-------------0------4----
D ---2---------0-----------2------------5--
A -----------------------3----------5------
E ---------------------------------3-------

Em7                 Dadd9
Eres todo lo que pedía
                C9
Lo que mi alma vacía
           G#
Quería sentir


Em7                    Dadd9
Eres lo que tanto esperaba
                    C9
Lo que en sueños buscaba
                   G#
Y que en ti descubrí



?ESTEN ES EL ARPEGIO DE LA 3ª ESTROFA?


   X              Dadd9           G        D(G)     Em(G)       Am7
e -----3----------------0----------3-----3---2-----2--3---------------
B -1-----1-----1----------3--------0---3-----3---3----3---3-----1---1-
G ---0-------0--------2--------2---0-0-------2-2------0-----0------0--
D ---------2--------0-----------------------------------2---------2---
A -0------------------------------------------------------------0-----
E ---------------------------------3---------2--------0---------------







  Dadd9                 C9
e ------0----------------------------------
B ----------3-------------------3-----3----
G ----2---2----2h0-0-0--------0---------0--
D --0----------------------0h2------2------
A -----------------------3-----------------
E -----------------------------------------


X                    Dadd9
Tú has llegado a encender
                 G
Cada parte de mi alma
     D(G)         Em(G)
Cada espacio de mi ser
               Am7
Ya no tengo corazón
              Dadd9
Ni ojos para nadie
          C9
Solo para ti

?DESDE AQUÍ ES CON RASGUEO..?

Em(G)             D
Eres el amor de mi vida
                C9
El destino lo sabia
                   G
Y hoy te puso ante mí
  Em(G)                     D
Y cada vez que miro al pasado
                         C9
Es que entiendo que a tu lado
              G#
Siempre pertenecí


 X                    D
Tú has llegado a encender
                  G
Cada parte de mi alma
     D(G)          Em(G)
Cada espacio de mi ser
                X
Ya no tengo corazón
               D
Ni ojos para nadie

        C9
Solo para ti
        Em(G)
Solo para ti
          X
Solo para ti
         Em
Solo para ti

C
Esto es de verdad
G#
Lo puedo sentir
C9
Se que mi lugar
         D     C
Es junto a tiiiiiiiiii
 Em
uuuuuuuuuu
 C9  Em(G)


Em(G)                D
Eres todo lo que pedía
               C9
Lo que no conocía
                 G
Y que en ti descubrí..

Gracias ¡¡¡¡¡
Espro les haiga gustado ¿??
Publiquen dudas o comentarios y con gusto los atenderé::::::
XD..
Aviso: Este fichero es trabajo propio de su transcriptor y representa su interpretación personal de la canción. El material contenido en esta página es para exclusivo uso privado, por lo que se prohibe su reproducción o retransmisión, así como su uso para fines comerciales.

Califica esta canción


Comentarios en Facebook