Enviado por: diego loza
Agrandar Letra
Reducir Letra
Imprimir

Acordes:
½ tono
| +0 |
½ tono
||
Volver










Javier Corcobado, La Cancion Del Viento

A:-----2-------2-3-2-----2-------2-3-2-----2-------2-3-2-----2---5-------
E:-0-3---3-0-3-------0-3---3-0-3-------0-3---3-0-3-------0-3---3---0-5-3-

A:-----2-------2-3-2-----2-------2-3-2-----2---5-----------2---------2-3-2-
E: 0-3---3-0-3-------0-3---3-0-3-------0-3---3---0-5-3-0-3---3-0-3---------

D:-----2------2-3-2-----2---5-4-5-5-4-5-4-5-5-4-5----------
A:0-3---3-0-3-------0-3---3------------------------7 s/0-

D:------7----------------2--------------------
A-7-8-7---8-8-7-s/-2-3-2---3-3-2-2-3-2--------
E:-------------------------------------4-5-4--

Am                                Em
Un galeón navegando dentro de tu copa
     Am                                   Em
Va rumbo a la mía surcando alientos de niebla
     Cm                                     Gm
Sus velas de orgasmo de ausencia retan a la tempestad
   Cm                                   Gm
Bebiendo tormentas evoco el amor en tus ojos
  Em          Am      Em
mundos de un sueño mejor

Am                                         Em
Hoy te hecho mucho de menos, sin ti no soy nada.
Am                                       Em
A estribor sale el sol y el coñac ya se acaba.
   Cm                                 Gm
Y aunque aun no has llegado, quisiera pedirte:
Cm                            Gm
Por favor, mi amor, nunca te vayas.
  Em        Am             Em
Vuelve en la canción del viento.
            Am          Em          Am      Bm         Em    Am   Bm
Vuelve en la canción del viento.

Este arreglo va sobre la siguiente estrofa
                                              La gavia?
A: -----2------2-3-2-5-----------2-------2-------2-------2-3-2-----2---5--
E:-0-3---3-0-3---------0-5-3-0-3---3-0-3---3-0-3---3-0-3-------0-3---3-----

D:-----------------------------2-------2-3-2-----2---
A: ----------2-------2-3-2-0-3---3-0-3-------0-3---3--
E: 0-5-3-0-3---3-0-3---------------------------------

D: 5-4-5-5-4-5-4-5-5-4-5--------
A: -----------------------7 s/0-

Em                    Am                     Em
La gavia esta tatuada con tu nombre y con el mío.
Am
Te oigo en la canción del viento,
Cm                  Gm                Em
Que cuando bebe se pone muy triste a gemir.
D:------7----------------2--------------------
A-7-8-7---8-8-7-s/-2-3-2---3-3-2-2-3-2--------
E:- -----------------------------------4-5-4--

Am                                         Em
Hoy te hecho mucho de menos, sin ti no soy nada.
Am                                       Em
A estribor sale el sol y el coñac ya se acaba.
   Cm                                 Gm
Y aunque aun no has llegado, quisiera pedirte:
Cm                            Gm
Por favor, mi amor, nunca te vayas.
Cm                            Gm
Por favor, mi vida, nunca te vayas.

  Em        Am             Em
Vuelve en la canción del viento.
            Am          Em          Am      Bm         Em    Am   Bm
Vuelve en la canción del viento.
Aviso: Este fichero es trabajo propio de su transcriptor y representa su interpretación personal de la canción. El material contenido en esta página es para exclusivo uso privado, por lo que se prohibe su reproducción o retransmisión, así como su uso para fines comerciales.

Califica esta canción


Comentarios en Facebook