Enviado por: beast666
Agrandar Letra
Reducir Letra
Imprimir


Otras Versiones de Historia De Un Minuto:









El Haragan, Historia De Un Minuto

E|-7-7---5--3--5--7--5--3-------------------------------------
B|------------------------------------------------------------
G|------------------------------------------------------------
D|------------------------------------------------------------
A|------------------------------------------------------------
E|------------------------------------------------------------

E|-7-7---5--3--5--7--5--3-------------------------------------
B|------------------------------------------------------------
G|------------------------------------------------------------
D|------------------------------------------------------------
A|------------------------------------------------------------
E|------------------------------------------------------------

E-8-8--7-5-7-5-8------------------------------------------
B---------------------------------------------------------
G---------------------------------------------------------
D---------------------------------------------------------
A---------------------------------------------------------
E---------------------------------------------------------

E-8-8--7-5-7-5-8------------------------------------------
B---------------------------------------------------------
G---------------------------------------------------------
D---------------------------------------------------------
A---------------------------------------------------------
E---------------------------------------------------------
OJALA LES SIVA ESTE ESPECIE DE REQUINTO VA EN CADA SILVIDO OK GRXXX 
POR LEER ESTOR PAZ SE CUIDAN ?????
Aviso: Este fichero es trabajo propio de su transcriptor y representa su interpretación personal de la canción. El material contenido en esta página es para exclusivo uso privado, por lo que se prohibe su reproducción o retransmisión, así como su uso para fines comerciales.

Califica esta canción


Comentarios en Facebook