Enviado por: fherxo
Agrandar Letra
Reducir Letra
Imprimir


Otras Versiones de Corazon Atomico:




Zoe, Corazon Atomico

INTRO
Se repite en casi toda la canción
e-------------------------------------------------------------------------
B-------------------------------------------------------------------------
G---------------------0-----------------0---------------------------------
D-----4---4-4---4---4---4---4---4-4---4-------4---4-4---4-----4---4-4---4-
A-5-5---5-----5---5-------5---5-----5-----2-2---2-----2---2-2---2-----2---
E-------------------------------------------------------------------------

D                         Bm
Dime si me estoy volviendo loco,
D                        Bm
dime por favor si a ti te pasa igual
D
mi corazon atomico
Bm
en cuenta regresiva esta
D
parece que perdi el control,
Bm
a mi ya no, ya no, ya no me importa nada.
     D                                    Bm
e-------------------------------------------------------------------------
B-------------------------------------------------------------------------
G---------------------0-----------------0---------------------------------
D-----4---4-4---4---4---4---4---4-4---4-------4---4-4---4-----4---4-4---4-
A-5-5---5-----5---5-------5---5-----5-----2-2---2-----2---2-2---2-----2---
E-------------------------------------------------------------------------
   X
A--5--

G
acaricia mi  alma,
        Bm
suaviza mi ser,
           G
estereliza mi sangre
           Bm
y purifica mi amor

G
acaricia mi  alma,
        Bm
suaviza mi ser,
           G
estereliza mi sangre
           Bm
y purifica mi amor
           Bm
y purifica mi amor

D
parece que perdi el control,
Bm
Pero ya no, ya no me importa nada.
D                         Bm
Dime si me estoy volviendo loco,
D                        Bm
dime por favor si a ti te pasa igual
                        G*                 G* es igual a
I just don?t know where i´m going,              G
                   Bm                       pero sin cejilla
but i know where I\'ll stay
                       G*                     e--3--
i just don\'t know where to find her          B--3--
                      Bm                      G--0--
but i know she can\'t hide.                   D--0--
                                              A--2--
G                                             E--3--
acaricia mi  alma,
        Bm
suaviza mi ser,
           G
estereliza mi sangre
           Bm
y purifica mi amor

G
acaricia mi  alma,
        Bm
suaviza mi ser,
           G
estereliza mi sangre
           Bm
y purifica mi amor
G
acaricia mi  alma,
        Bm
suaviza mi ser,
           G
estereliza mi sangre
           Bm
y purifica mi amor
           Bm
y purifica mi amor

G Bm G Bm X2

G Bm G G
3ra Cuerda
G----7/9-7/9-7/9-7/9----
Aviso: Este fichero es trabajo propio de su transcriptor y representa su interpretación personal de la canción. El material contenido en esta página es para exclusivo uso privado, por lo que se prohibe su reproducción o retransmisión, así como su uso para fines comerciales.

Califica esta canción


Comentarios en Facebook