Acordes y tablaturas para guitarra

Acordes y Tablaturas
Usuario: Password:

Buscar:
Acordes y Tablaturas >> Letra L >> Acordes de Lamb Of God >> Laid To Rest
Tablatura de Laid To Rest, Lamb Of God

Laid To Rest

Lamb Of God






laid to rest
--------------------------------------------------
--------------------------------------------------
--------------------------------------------------
--------------------------------------------------
-------6-5-3-------8-5-6--------------------------
-0-0-0-------0-0-0-------0-0-0-8-5-4/7-8-7-10-7-8-

-----------------------------------------------------
-----------------------------------------------------
-----------------------------------------------------
-------4h5p4---------8-7-5--4h5p4---4----------------
-------------5--------------------6---5-6-3-5---3----
-0-0-0---------0-0-0--------------------------6---5-6

---------------------------------------------------------
---------------------------------------------------------
---------------------------------------------------------
---------------------------------------------------------
-2-2-2-2------2-2-2-2------2-2--2------------------------
-2-2-2-2-3b*--2-2-2-2-3b*--2-2--2-2-3-2-5-4-3------------

-------------------------------------------------------------
-------------------------------------------------------------
-------------------------------------------------------------
-------------------------------------------------------------
-2-2-2-2------2-2-2-2------2-2--2----------------------------
-2-2-2-2-3b*--2-2-2-2-3b*--2-2--2-2-3-2-3-2-1----------------


                          8 veces
----------------------------------------------------
-------------------13-------------------------------
-15p14----12h14------15----15h14--------------------
-------12-------12-----12--------------12-----------
----------------------------------------------------
----------------------------------------------------


                          2 veces
--------------------------------------------------------
--------------------------------------------------------
--------------------------------------------------------
--------------------------------------------------------
--------------------------------------------------------
-0--0-6-3-5-0--0-1-3-1-0--0-6-3-5--0-1-3-4*-3-----------

---------------------------------------------------------
---------------------------------------------------------
---------------------------------------------------------
---------------------------------------------------------
-5-------5---5-------5---6-------6---6-------6-----------
---5-0-5---5---5-0-5---5---5-0-5---5---5-0-5---5---------

------------------------------------------------------
------------------------------------------------------
------------------------------------------------------
------------------------------------------------------
---------------------------0-------0---0-------0------
-8-7-5-7-8-7-8-7-5-7-8-7-0---5-1-5---1---5-1-5---1----

Que te parecio? Calificalo con estrellas!!

Rating: 7.7/10 (57 votos)

Este fichero es trabajo propio de su transcriptor y representa su interpretación personal de la canción. El material contenido en esta página es para exclusivo uso privado, por lo que se prohibe su reproducción o retransmisión, así como su uso para fines comerciales.


Deja tus comentarios:
Letras de canciones | Musica Independiente