Acordes y tablaturas para guitarra

Acordes y Tablaturas
Usuario: Password:

Buscar:
Acordes y Tablaturas >> Letra R >> Acordes de R.E.M >> Losing My Religion
Tablatura de Losing My Religion, R.E.M

Losing My Religion

R.E.M






Intro 
                    F     G               Am                                            
e|--10--12--10------8--|--10--12--10------8--|
b|--------------10-----|--------------10-----|
g|---------------------|---------------------|
D|---------------------|---------------------|
A|---------------------|---------------------| 
E|---------------------|---------------------|

F     G               Am     G(II)
e|--10--12--10------8--|--10--12--10------8--|    
b|--------------10-----|--------------10-----|
g|---------------------|---------------------|
D|---------------------|---------------------|
A|---------------------|---------------------| 
E|---------------------|---------------------|

Guitar pass

e|-----------5--3-----|
b|--------5--------3--|
g|--5--7--------------|
D|--------------------|
A|--------------------|
E|--------------------|


        Am            Em
Oh life    is bigger,    it's bigger than you.
            Am                              Em
And you are not me, the lengths that I will go to.
                           Am
The distance in your eyes.
Em                      Dm                            G
   Oh no, I've said     too    much, I've said enough.


#Guitar pass#

                         Am                  Em
That's me in the corner,    That's me in the spot light,
                    Am           Em
Losing my religion.    Trying to keep up with you.
      Am
And I don't know if I can do it.
Em                      Dm                                 G
   Oh no, I've said     too    much, I haven't said enough.


#You do the intro note here#

                                     F 
I thought that I heard you laughing.
F                G         Am    
I thought that I heard you sing.
  F                      G   Am    G(II)
I think I thought I saw you try.


#Guitar pass#

                 Am
  Every whisper,
             Em                                 Am
Every waking hour, I'm choosing my confessions.
          Em
Trying to keep eye on you.
       Am
Like a hurt lost and blinded fool, fool.
Em                            Dm                G
   Oh no, I've said too much.    I said enough.


#Guitar pass#

               Am               Em
Consider this,    consider this hint of the century.
               Am                Em
Consider this,    the slip, that brought me to my knees pale.
Am                               Em
What if all these fantasies come    flaming aground.
         Dm       G
Now I've said too much.


#You do the intro note here#

                                     F 
I thought that I heard you laughing.
F                G         Am    
I thought that I heard you sing.
  F                     G   Am     G
I think I thought I saw you try.

Interlude
    C                               Am
e|--12--12--12--10--10--10--10--10--8--8--8--5--5--5--5--5--|
b|----------------------------------------------------------|
g|----------------------------------------------------------|
D|----------------------------------------------------------|
A|----------------------------------------------------------|
E|----------------------------------------------------------|

    C                               Am
e|--12--12--12--10--10--10--10--10--8--8--8--5--5--5--5--5--|
b|----------------------------------------------------------|
g|----------------------------------------------------------|
D|----------------------------------------------------------|
A|----------------------------------------------------------|
E|----------------------------------------------------------|

    C                               Am
    That's was just dream 
e|--12--12--12--10--10--10--10--10--8--8--8--5--5--5--5--5--|
b|----------------------------------------------------------|
g|----------------------------------------------------------|
D|----------------------------------------------------------|
A|----------------------------------------------------------|
E|----------------------------------------------------------|

    C                               Am
    That's was just a dream         That's me in the corner       
e|--12--12--12--10--10--10--10--10-----------5--3--------------|
b|----------------------------------------5--------3-----------|
g|----------------------------------5--7-----------------------|
D|-------------------------------------------------------------|
A|-------------------------------------------------------------|
E|-------------------------------------------------------------|

                 Em                              Am
That's me in the spot light, losing my religion.
          Em                       Am
Trying to keep up with you.  And I don't know if I can do it.
Em                      Dm
   Oh no, I've said     too    much.
                       G
I haven't said enough.


#You do the intro note until the outro#
 
                                    F 
I thought that I heard you laughing.
                 G         Am    
I thought that I heard you sing.
  F                     G     Am
I think I thought I saw   you try.
    F                     G          Am     
But that was just a dream,      try, cry, why try.
F                     G        Am            G(II)   G(II)
That was just a dream,   just a dream, just a dream, dream.

Outro
e|--12--12--12--12--12--12--12--12--|
b|----------------------------------|
g|----------------------------------|
D|----------------------------------|
A|----------------------------------|
E|----------------------------------|

e|--12--12--12--12--12--12--12--12--|
b|----------------------------------|
g|----------------------------------|
D|----------------------------------|
A|----------------------------------|
E|----------------------------------|

e|--12--12--12--12--12--12--12--12--|
b|----------------------------------|
g|----------------------------------|
D|----------------------------------|
A|----------------------------------|
E|----------------------------------|

e|--12--12--12--12--12--12--12--12--|
b|----------------------------------|
g|----------------------------------|
D|----------------------------------|
A|----------------------------------|
E|----------------------------------|

e|--12--12--12--12--12--12--12--12--|
b|----------------------------------|
g|----------------------------------|
D|----------------------------------|
A|----------------------------------|
E|----------------------------------|

e|--12--12--12--12--12--12--12--12--|
b|----------------------------------|
g|----------------------------------|
D|----------------------------------|
A|----------------------------------|
E|----------------------------------|

e|--12--12--12--12--12--12--12--12--|
b|----------------------------------|
g|----------------------------------|
D|----------------------------------|
A|----------------------------------|
E|----------------------------------|

e|--12--10----------10-------------------|
b|----------13--10------13--10--13--10v--|
g|---------------------------------------|
D|---------------------------------------|
A|---------------------------------------|
E|---------------------------------------|

Que te parecio? Calificalo con estrellas!!

Rating: 8.3/10 (164 votos)

Este fichero es trabajo propio de su transcriptor y representa su interpretación personal de la canción. El material contenido en esta página es para exclusivo uso privado, por lo que se prohibe su reproducción o retransmisión, así como su uso para fines comerciales.


Comentario de joe_pearry
espero q les guste ...joe
Deja tus comentarios:
Letras de canciones | Musica Independiente