Canciones Populares, Las Mañanitas

Las Mañanitas: 
Transcripción por Lenin Arturo
Cualquier duda o correpcion escríbanme a mi correo:
                         [email protected]

ya la havia traducido pero no la pusieron es que la puse con el artista seis bolitos y creo que no era y mejor la puse aqui en canciones populares creo que esta bien.
Intro:
1-----------2-2--0-2--3--2--3--5--2--3--5--7-------------
2---3--3---3-3--1-3--5--3--5--7--3--5--7--8-------------
3---2--2-------------------------------------------------

1--7-7--5--3--2--0--3--2--2-2--3--5--7--3--2------------
2--8-8--7--5--3--1--5--3--3-3--5--7--8--5--3------------
3--------------------------------------------------------

1--5--3--2--2-2--3--5--2--5--3--2-2--3--5---------------
2--7--5--3--3-3--5--7--3--7--5--3-3--5--7---------------
3--------------------------------------------------------

1--------7--7---8---7--5--2---2-2--3--5--7--3--2---------
2--8-8--8--8--10--8---7--3---3-3--5--7--8--5--3--------
3--7-7---------------------------------------------------

1----0--2-2--0-2-2--0-2--5-3-2-0--2-3-3------------------
2----2--3-3--1-3-3--2-3--7-5-3-2--3-5-5------------------
3----------------------------------------------------------

1---0-3-2-3-3--2--3--3--3-5-7--3-0-2-2-------------------
2---2-5-3-5-5--3--5--5--5-7-8--5-2-3-3-------------------
3-----------------------------------------------------------

1---2-0--0-0-2-3--3-3-5-7-7-5-7-7-5-7---------------------
2---3-2--0-2-3-5--5-5-7-8-8-7-8-8-7-8---------------------
3-----------------------------------------------------------

1---7-5-3-2--0-2-3--3-5-7-3--0--2-2-----------------------
2---8-7-5-3--2-3-5--5-7-8-5--2--3-3-----------------------
3----------------------------------------------------------

eso es todo hasta luego
saludos a Joana L. G. de Santa Clara
Aviso: Este fichero es trabajo propio de su transcriptor y representa su interpretación personal de la canción. El material contenido en esta página es para exclusivo uso privado, por lo que se prohibe su reproducción o retransmisión, así como su uso para fines comerciales.

Califica esta canción


Comentarios en Facebook