Enviado por:
Anonimo

Bersuit Vergarabat, La Soledad

Imprimir
Intro: 

e//----------------------------------------------------------------------//         
B//---------------------------------------------------------------------//           
G//---------------------------------2--------------1------------------//
D//------------------------------3-----3------2-------2-------------//                          x  3
A//----0-----3---5h---7--------------------------------------------//               
E//-------------------------------------------------------------------//               

 e//----------------------------------------------------------------------//         
B//---------------------------------------------------------------------//           
G//---------------------------------2--------------------------------//
D//------------------------------3-----3------2-----------------------//                          
A//----0-----3---5h---7--------------------------------------------//               
E//-------------------------------------------------------------------//          


(*) : 
         
e//--------------------------------------------------------------------------------------------------------//    
B//---------------------------------------------------------------------------------4-----5----7h---9--//        
G//------------------------------------------------------------------------------------------------------//
D//----------------------------------------------3--------5-------7h----9----------------------------//      x 2
A//----0-----3---5h---7-----------------------------------------------------------------------------//
E//--------------------------3-----5----7h--8-------------------------------------------------------//

         La m    
Esperaría que no te asuste
                   Do
este instante de sinceridad;
               Sol
mi corazón
                         Mi 7
vomita su verdad.
               La m
Es que hay una guerra entre dos
                  Do
por ocupar el mismo lugar;
               Sol
la urgencia
                   Mi 7
o la soledad.
               La m                            
La soledad fue tan sombría
Fa                                       Do
que no te dejó encontrar
                               Sol
tu naturaleza divina.
             La m
La urgencia ganó esta vez,
               Fa                            Do
dispuesta a penetrarte,
                             Mi 7
prepotente y altiva.

                    ( silencio )                                      Fa  Fa 7  Mi  Mi 7
 Por las noches la soledad desespera,
                                La m                                  Fa  Fa 7  Mi  Mi 7
por las noches la soledad desespera.
                            La m                           Fa  Fa 7  Mi  Mi 7
Que por las noches la soledad desespera,
                         La m                           Fa  Fa 7  Mi  Mi 7
por las noches la soledad desespera.


Intro: [  Espera por ti,
espera por él,
espera por mí,
tambien por aquel ... ]

 La m                                                  Do
que con violencia sujeta su alma
                                     Sol  
a una brutal represión,
Mi m      La m      Sol          Mi 7
esperando apaciguarse.
   Do             Fa     
O confía en el paso del tiempo,
Sol                         La m    
como otra solución
Mi m     La m     Sol           Mi 7
para encontrar la calma.

(*)Pero te pone loco en las noches,
rogando entrar
en los confines más oscuros.
Después te arrodillas
ante el amor maternal,
suplicando ternura.

                            La m                                    Fa  Fa 7  Mi  Mi 7
 Por las noches la soledad desespera,
                                La m                                  Fa  Fa 7  Mi  Mi 7
por las noches la soledad desespera.
                            La m                           Fa  Fa 7  Mi  Mi 7
Que por las noches la soledad desespera,
                         La m                           Fa  Fa 7  Mi  Mi 7
por las noches la soledad desespera
 
                    Re m
Espera por ti,
                    La m
espera por él,
                      Sol 
espera por mí,
                           La m
también por aquel ...
                     Re m   
Espera por ti,
        La m     
por él ...

                      Sol  
espera por mí
                             Mi 7
también por aquel ...

Y  espera ...

e//------4---------------//
B//----------5----5/7--//

                        ( silencio)                  La m
¿Y que hace este angelito, ahora,
                                    Do
a las seis de la mañana,
                       Sol  
subida al mástil
                          Mi m
de este naufragio?
                                                            La m
¿A ver si, alzando las copas, forajidas,
Do                   Sol                       La m
viene un cielo de enfermeras
                    Fa
para lamer, sin asco
             Do
las heridas...
        Mi 7   
de amor?

                                        La m
Por las noches la soledad desespera...
        Fa   Fa 7  Mi   Mi 7     
¿A ver si viene del cielo
                                       La m
Por las noches la soledad desespera...
           Fa   Fa 7  Mi   Mi 7     
una enfermera del amor?    X 4


e//----------------------------------------------------------------------//         
B//---------------------------------------------------------------------//           
G//---------------------------------2--------------1-----------2------//
D//------------------------------3-----3------2-------2-------2------//                     
A//----0-----3---5h---7--------------------------------------0------//               
E//-----------------------------------------------------------------//               

Espero q les sirva,
Escriban cualquier cosa a [email protected]

Ðipµ

Fuente original: LaCuerda
Colaborador original: Oscar Leonardo Gastón Echenique [[email protected]]
Aviso: Este fichero es trabajo propio de su transcriptor y representa su interpretación personal de la canción. El material contenido en esta página es para exclusivo uso privado, por lo que se prohibe su reproducción o retransmisión, así como su uso para fines comerciales.

Califica esta canción


Comentarios en Facebook