Enviado por:
Anonimo

Bersuit Vergarabat, Gentes De Mierda

Imprimir
INTRO:
e--10t8p5h8-10t8p5---------------------------------/
B------------------10t8p5h8-10t8p5--8p6p5h6-8-6-5--/
G--------------------------------------------------/
D--------------------------------------------------/
A--------------------------------------------------/
E--------------------------------------------------/


e-10t8p5h8-10t8p5----------------------------------/
B-----------------10t8p5h8-8-8-8-6-5---------------/
G------------------------------------7-5-----------/
D--------------------------------------------------/
A--------------------------------------------------/
E--------------------------------------------------/ 

SOLO:

e--12-15-15--10-12-12--8-10-10--7-8-8--5-7-7--5-7-7p5---------/
B-----------------------------------------------------8-6-----/
G-------------------------------------------------------------/
D-------------------------------------------------------------/
A-------------------------------------------------------------/
E-------------------------------------------------------------/


e--8-10-10--7-8-8--5-7-7--3h5-5-5-5-5-5--5-5------------------/
B--------------------------------------------6-5--------------/
G-------------------------------------------------------------/
D-------------------------------------------------------------/
A-------------------------------------------------------------/
E-------------------------------------------------------------/
                 
e--12-15-15--10-12-12--8-10-10--8-8-8-8s20-20-20-20-20s19-19--/
B-------------------------------------------------------------/
G-------------------------------------------------------------/
D-------------------------------------------------------------/
A-------------------------------------------------------------/
E-------------------------------------------------------------/

e--10t8p5h8-10t8p5--------------------------------------------/
B-------------------10t8p5h8-10t8p5--8p6p5h6-8-6-5------------/
G-------------------------------------------------------------/
D-------------------------------------------------------------/
A-------------------------------------------------------------/
E-------------------------------------------------------------/

e--10t8p5h8-10t8p5--------------------------------------------/
B-------------------10t8p5h8--8-8-8-6-5-3-1-------------------/
G-------------------------------------------------------------/
D-----------------------------9-9-9-7-5-3-2-------------------/
A-------------------------------------------------------------/
E-------------------------------------------------------------/

p:PULL OFF(ligado descendente)
h:HAMMER OM(ligado ascendente)
t:TAPPING
s:SLIDE(deslizamiento)

cualquier duda, escriban a mi mail

Fuente original: LaCuerda
Colaborador original: Marcelo Flores [[email protected]]
Aviso: Este fichero es trabajo propio de su transcriptor y representa su interpretación personal de la canción. El material contenido en esta página es para exclusivo uso privado, por lo que se prohibe su reproducción o retransmisión, así como su uso para fines comerciales.

Califica esta canción


Comentarios en Facebook