Enviado por:
Anonimo

Bersuit Vergarabat, Espiritu De Esta Selva

Imprimir
solo de guitarra:

|------------------------------------------------------------|-----(10-10)--(7-7)---(5-5)--(2-2)-
|---------7~---5-3-2-3-2-0---0-3-3-3-3-3-3-2-3/5-3-2-3-2-0-7-|--7---------7-------5------2-------
|-6-7-6-4------------------0---------------------------------|-----------------------------------
|------------------------------------------------------------|-----------------------------------
|------------------------------------------------------------|-----------------------------------
|------------------------------------------------------------|-----------------------------------

|------------------------------5/10-10-10-9-7-5-9---------|------------------------------------
|---5p3-5p3-5p3-5p3-5^^-3---------------------------------|-2/8-8-8-7-5-3-5/8~-----------------
|-------------------------4-------------------------------|------------------------------------
|---------------------------------------------------------|------------------------------------
|---------------------------------------------------------|------------------------------------
|---------------------------------------------------------|------------------------------------

Creo que es así, cualquier deuda mandenme un mail a [email protected]
Saludos a todos! y aguante Goldfish y Playa Girón!

Fuente original: LaCuerda
Colaborador original: David [[email protected]]
Aviso: Este fichero es trabajo propio de su transcriptor y representa su interpretación personal de la canción. El material contenido en esta página es para exclusivo uso privado, por lo que se prohibe su reproducción o retransmisión, así como su uso para fines comerciales.

Califica esta canción


Comentarios en Facebook