Enviado por:
Anonimo

Bersuit Vergarabat, El Viejo De Arriba

Imprimir
esta es la introduccion correcta:
e-----------------------------------10-10----------11-11--
B-------10-11-------13-13--11-12-13-------13-11-11--------
G-11-12-------12-12---------------------------------------
D---------------------------------------------------------
A---------------------------------------------------------
E---------------------------------------------------------

e-10-10---------------------------------
B-------13-11--11-13-11-10--------10----
G--------------------------12-11--------
D---------------------------------------
A---------------------------------------
E---------------------------------------

e-----------------------------------10-10----------11-11--
B-------10-11-------13-13--11-12-13-------13-11-11--------
G-11-12-------12-12---------------------------------------
D---------------------------------------------------------
A---------------------------------------------------------
E---------------------------------------------------------

e-10-10-10--10-10--8--8--8-------6-5----
B-11-11-11--11-11-10-10-10-11-10-8-7----
G---------------------------------------
D---------------------------------------
A---------------------------------------

cualquier cosa escriban

Fuente original: LaCuerda
Colaborador original: roge [[email protected]]
Aviso: Este fichero es trabajo propio de su transcriptor y representa su interpretación personal de la canción. El material contenido en esta página es para exclusivo uso privado, por lo que se prohibe su reproducción o retransmisión, así como su uso para fines comerciales.

Califica esta canción


Comentarios en Facebook