Enviado por:
Anonimo

Bersuit Vergarabat, El Tiempo No Para

Bersuit Vergarabat - El tiempo no para


Cambio 1:

e--------------
B--------------
G--------------
D--2--0--------
A--------2--0--
E--------------


Cambio 2:

e--------------
B--------------
G-(5)(4)(2)----
D-(5)(4)(2)(5)-
A--3--2--0-(5)-
E-----------3--


Cambio 3:

e---------
B-------5-
G-2-4-5-5-
D-2-4-5-3-
A-0-2-3-0-
E---------




INTRO:

                                          D        B7         C
e--3---3-----------------------------------2----------------------3--
B--4/5-3-------------3------1------1h3-----3-3-------4----------5----
G---------4p2-0—-2h4------------0h2-------2--------------------------
D---------------------------------------0----------4---4/5----5------
A-----------------------0----------------------2----------3----------
E--------------------------------------------------------------------


               G                          Am
e--------------------------------------------------------------------
B--3p5h3---------3p0-0-----------------------1----1p0----------------
G--------5-4---------2b3-0h2p0h2p0h2p0h2-----2--------2--------------
D--------------0---------------------------2------------2------------
A----------------------------------------0------0---------0-2-3-4----
E------------3-------------------------------------------------------


     D    B7                                
e--2-----------------8-----8------12------
B----3------4----------8------------------
G----------------4/9---------9/12----9--
D---------4---4---------------------------
A-------2---------------------------------
E-----------------------------------------



G                            Am    _____  Tocar acentuando las 1ras, 2das y 3ras  
  Y tu cabeza está llena de ratas, /                               

                           D            B7              C
te compraste las acciones de esta farsa, y el tiempo no para.

e--------------------------2----------------------------------
B--------------------------3-3----------4-----------5-----3---
G-------------------------2---------------------------------5-
D-----------------------0-------------4---4/5-----5-----------
A-----------------------------------2----------3--------------
E-------------------------------------------------------------


G                            Am       _____  Tocar acentuando las 1ras, 2das y 3ras  
  Yo veo al futuro repetir el pasado, /                               

                       D            B7              C
Veo un museo de grandes novedades y el tiempo no para, no para, no, no!   

e----------------------2------------------------------------
B----------------------3-3-----------4--------------3---3---
G---------------------2-------------------------------5---5-  Después de esto
D-------------------0--------------4---4/5-------5----------  hacer el cambio 2
A--------------------------------2------------3-------------
E-----------------------------------------------------------


  Em                                          Am
Disparo contra el sol con la fuerza del ocaso,
                               D
mi ametralladora está llena de magia, 
          Em       
pero soy solo un hombre más. 

  Em                                          Am
Cansado de correr en la dirección contraria, 
                                           D
sin podio de llegada y mi amor me corta la cara,
           Em
porque soy sólo un hombre más. 

  Em                                 Am
Pero si pensás que estoy derrotado, 
                                  D
quiero que sepas que me la sigo jugando,
                               Em
porque el tiempo, el tiempo no para. 

  Em
Y Unos días sí, otros no, 
  Cambio 3                                D
estoy sobreviviendo sin un rasguñón, 
                           Em      Cambio 1
por la caridad de quien me detesta.


G                            Am
  Y tu cabeza está llena de ratas,
                           D             B7
te compraste las acciones de esta farsa, 
               C
y el tiempo no para. 

G                            Am 
  Yo veo el futuro repetir el pasado, 
                       D          B7
veo un museo de grandes novedades
                C       Cambio 2
y el tiempo no para, no para, no. 

e---------------0-
B---------------0-
G---------------0-
D-55555554---22-2-  X4
A-55555554---22-2-
E-33333332---00-0-


  Em                      Am
Yo no tengo fechas para recordar,
                              D
mis días se gastan de par en par
                            Em
buscando un sentido a todo esto.

  Em                             Am
Las noches de frío es mejor no nacer,
                                 D 
las de calor se escoje matar o morir,
                        Em
y así nos hacemos Argentinos!! 

      Em                              Cambio 3
Nos tildan de ladrones, maricas, faloperos, 
                               D 
y ellos sumergieron un país entero, 
                        Em    Cambio 1
pues así se roban mas dinero.


G                            Am
  Y tu cabeza está llena de ratas,
                           D             B7
te compraste las acciones de esta farsa, 
               C
y el tiempo no para. 

G                            Am 
  Yo veo el futuro repetir el pasado, 
                       D          B7
veo un museo de grandes novedades
                C     Cambio 2
y el tiempo no para, no para, no.

Solo:

E-------------------10--------------------------
B--10b12r10-8-10b12----12r10-----8-10-8------8--
G------------------------------------9----8/9---
D-----------------------------------------------
A-----------------------------------------------
E-----------------------------------------------

E--------------------------------------------------------
B--------------------------------------------------------
G----7----------------------------------------7-7-9-9v---
D-7h9-7p5--7p(5)-7p(5)-7p(5)-7p(5)-7p(5)---7/9-----------
A---------------7-----7-----7-----7-----7----------------
E--------------------------------------------------------

E------12--14--15---17b19-17b(19)-17b119-17p15------------------------------------------
B-11/12--12--12--12----------------------------17/12—12-15p(12)—-12-15p(12)--12-15p(12)-
G---------------------------------------------------------------------------------------
D---------------------------------------------------------------------------------------
A---------------------------------------------------------------------------------------
E---------------------------------------------------------------------------------------

E----------------------------------------------------------------------------------------
B-12-15p(12)--12-15p(12)--12-15p(12)--12-15p(12)--12-15p(12)-12h15-12h15-12h15-12h15—15b-
G----------------------------------------------------------------------------------------
D----------------------------------------------------------------------------------------
A----------------------------------------------------------------------------------------
E----------------------------------------------------------------------------------------


  Em
Y Unos días sí, otros no, 
  Cambio 3                                D
estoy sobreviviendo sin un rasguñón, 
                           Em      Cambio 1
por la caridad de quien me detesta.


G                            Am
  Y tu cabeza está llena de ratas,
                           D             B7
te compraste las acciones de esta farsa, 
               C
y el tiempo no para. 

G                            Am 
  Yo veo el futuro repetir el pasado, 
                       D          B7
veo un museo de grandes novedades
                C       Cambio 2
y el tiempo no para, no para, no. 


e---------------0-
B---------------0-
G---------------0-
D-55555554---22-2-  X4
A-55555554---22-2-
E-33333332---00-0-


FIN

   G   Am  D   B7  C   Em 
e--3---0---2---2---0---0---------------------
B--3---1---3---4---1---0---------------------
G--0---2---2---2---0---0---------------------
D--0---2---0---4---2---2---------------------
A--2---0-------2---3---2---------------------
E--3-------------------0---------------------

Consejo: En las partes lentas del tema con los acordes Em Am 
(O cambio 3) D Em, traten de hacerle algun arreglo cuando tocan 
D.

Cualquier problema o consulta pueden mandarme un mail a 
panchocariokaahoo.com

Suerte!!

Fuente original: LaCuerda
Colaborador original: masterofpuppets [[email protected]]
Aviso: Este fichero es trabajo propio de su transcriptor y representa su interpretación personal de la canción. El material contenido en esta página es para exclusivo uso privado, por lo que se prohibe su reproducción o retransmisión, así como su uso para fines comerciales.

Califica esta canción


Comentarios en Facebook