Acordes y tablaturas para guitarra

Acordes y Tablaturas
Usuario: Password:

Buscar:
Acordes y Tablaturas >> Letra S >> Acordes de Schubert >> Ave Maria
Tablatura de Ave Maria, Schubert

Ave Maria

Schubert






Lento
E---------------------------------------------------------------
B--------------------3------1----------1-----3--1---------------
G-----3------2---3--------------3------------------3--2--0--2--3
D---------------------------------------------------------------
A---------------------------------------------------------------
E---------------------------------------------------------------


E------------------------------0--------------------------------
B-----3-----3-----1--------3-----3--2-------1-------------------
G-------------------3-2-0-----------------2---------------------
D---------------------------------------------------------------
A---------------------------------------------------------------
E---------------------------------------------------------------


E---------------------------------------------------------1-----
B---------1--3--4--1------------3-----1--1----------0--3-----3--
G---3--2--------------2--3--------------------2--0--------------
D---------------------------------------------------------------
A---------------------------------------------------------------
E---------------------------------------------------------------


E---------------------------------------------------------------
B--0--1------------------------------------------1-----1-1------
G-------------0--2--3--2------0---------------------------------
D--------------------------------3-----------3-3----------------
A---------------------------------------------------------------
E---------------------------------------------------------------


E---------------------------------------------------------------
B--0-1-----3-1-----3---------1-----1-1-0-1-4-3-1-----------1----
G--------------------3-----3---------------------3-------3------
D---------------------------------------------------------------
A---------------------------------------------------------------
E---------------------------------------------------------------


E------------------1--------------------------------------------
B--1-3-----3-3-1-3------4-----------3---1----1-------2-1---1----
G-------------------------------0-0------------3-2-3-----3------
D---------------------------------------------------------------
A---------------------------------------------------------------
E---------------------------------------------------------------


E---------------------------------------------------------------
B-------------------3------1------------------------------------
G----3------2---3--------------3--------------------------------
D---------------------------------------------------------------
A---------------------------------------------------------------
E--------------------------------------------4-----4------------

Que te parecio? Calificalo con estrellas!!

Rating: 7.6/10 (82 votos)

Este fichero es trabajo propio de su transcriptor y representa su interpretación personal de la canción. El material contenido en esta página es para exclusivo uso privado, por lo que se prohibe su reproducción o retransmisión, así como su uso para fines comerciales.


Deja tus comentarios:
Letras de canciones | Musica Independiente