Enviado por:
Anonimo

Bersuit Vergarabat, El Pacto

Imprimir
Se que no esta completamente acertado, pero por lo menos es mejor que las otras 
versiones que ni siquiera saben poner el nombre del tema bien. Es un pacto,
no el pacto. Bueno, aca esta... más o menos bien, quizas un poco extendida.

Dedicada a Mariel... te amo mucho... despues de todo no es casualidad que vos te
llames Mariel y yo Ariel... las casualidades no existen

Estrofa

Un pacto para vivir  (...)    revolviendo más 
e:-----------------------------  	---------------------------------
B:-------0------0-----0-----0--  	--------0-----0------0------0----
G:-----0-----0------0-----0----X5	------0-----0-----0-------0------X2
D:---0-------0------0-----0----  	----0-------0-----0-------0------
A:-----------------------------  	---------------------------------
E:-3--------3------3-----3-----		--2-------2-----2-------2--------

	En los restos			de un amor
e:------------------------------------------------------------------------
B:-------0--------0--------0----------------1--------1--------1-----------
G:-----0-------0--------0---------0-------0--------0--------0-------------
D:---2---------2--------2--------2-------2---------2--------2-------------
A:-------------------------------------3---------3--------3--------3------
E:-0---------0--------0--------0------------------------------------------

	con un camino...                recto		
e:------------------------------------------------------------------------
b:-------3--------3--------3-----------------1-------1--------1-----------
G:-----0--------0--------0-----------------0-------0--------0---------0---
D:---4----------4--------4---------------2---------2--------2--------2----
A:-5---------5--------5--------5-------3---------3--------3--------3------
E:------------------------------------------------------------------------

			A la desesperación
e:-------2--------2--------2-----------------0-------0--------0-----------
B:-----1--------1--------1-----------------0-------0--------0--------0----
G:---2----------2--------2---------------0---------0--------0-------0-----
D:-0---------0--------0--------0-------2---------2--------2--------2------
A:------------------------------------------------------------------------
E:------------------------------------------------------------------------


Desenlacé en     un        cuento			de terror
e:------------------------------------------------------------------------
B:-------3--------3---------3----------------0--------0--------0----------
G:-----4--------4--------4--------4--------2-------2--------2---------2---
D:---4----------4--------4-------4-------0---------0--------0--------0----
A:-2---------2--------2--------2-------2---------2--------2--------2------
E:------------------------------------------------------------------------

e:------------------------------
B:-------0------0------0-----0--
G:-----0------0------0-----0----X2
D:---0--------0------0-----0----
A:------------------------------
E:-3--------3------3-----3------


Estrofa 2

Seis años así (...)   		con mi fantasía,
e:-----------------------------  	---------------------------------
B:-------0------0-----0------0-  	--------3-----3------3------3----
G:-----0------0------0-----0---X2	------0-----0-----0--------0-----X2
D:---0--------0------0-----0---  	----0-------0-----0-------0------
A:-----------------------------  	---------------------------------
E:-3--------3------3-----3-----		--2-------2-----2-------2--------


Buscando otro cuerpo,		otra voz,
e:----------------------------------------------------------------------
B:-------0-------0--------0------------------1-------1------1-----------
G:-----0-------0--------0---------0--------0-------0------0-------------
D:---2---------2--------2--------2-------2---------2------2-------------
A:-------------------------------------3---------3------3-------3-------
E:-0---------0--------0--------0----------------------------------------

   		
fui consumiendo 		infiernos
e:-------2--------2--------2--------------------------------------------
b:-----1--------1--------1---------1--------1--------1------1-----------
G:----2---------2--------2--------2-------0--------0------0--------0----
D:-0---------0--------0--------0---------2---------2------2------2------
A:-------------------------------------3---------3------3------3--------
E:----------------------------------------------------------------------

Para salir 				de vos, 
e:-------2-------2--------2------------------0-------0------0-----------
B:-----1-------1--------1----------1-------0-------0------0--------0----
G:---2---------2--------2---------2------0---------0------0------0------
D:-0---------0--------0--------0-------2---------2------2------2--------
A:----------------------------------------------------------------------
E:----------------------------------------------------------------------

intoxicado, loco y 				sin humor
e:----------------------------------------------------------------------
B:-------3-------3--------3----------------0--------0------0------------
G:-----4-------4--------4--------4-------2--------2------2-------2------
D:---4---------4--------4-------4-------0---------0------0------0-------
A:-2---------2--------2-------2-------2---------2------2------2---------
E:----------------------------------------------------------------------

e:-----------------------------
B:-------0------0-----0-----0--
G:-----0-----0------0-----0----X2
D:---0-------0------0-----0----
A:-----------------------------
E:-3--------3------3-----3-----

Estribillo

C		    G 
oooooohh - oooohhhh oooh - oooh
C		    G
oooooohh - oooohhhh oooh - oooh


Interludio

Em-C-G 
     (fill)

Estrofa 3

Si hoy te tuviera aquí (...) me sentiría raro
e:-------1-------1-------1-------1--	   -------0-------0-------0-------0-
B:---2-------2-------2-------2------	   ---3-------3-------3-------3-----
G:-----1-------1-------1-------1----X2	   -----4-------4-------4-------4---X2
D:-3---------3-------3-------3------	   -4---------4-------4-------4-----
A:----------------------------------	   ---------------------------------
E:----------------------------------	   ---------------------------------

No tengo sueños,			mi panza vibra 
e:-------0-------0-------0-------0-----------0-------0--------0------------
B:---3-------3-------3-------3---------------------------------------------
G:-----4-------4-------4-------4-----------0-------0--------0---------0----
D:-2---------2-------2-------2-----------2---------2--------2--------2-----
A:-------------------------------------3---------3--------3--------3-------
E:-------------------------------------------------------------------------

tuve un golpe			 energético,
e:-------2-------2--------2------------------------------------------------
b:-----1-------1--------1--------------------1-------1--------1------------
G:---2---------2--------2------------------0-------0--------0---------0----
D:-0---------0--------0--------0---------2---------2--------2--------2-----
A:-------------------------------------3---------3--------3--------3-------
E:-------------------------------------------------------------------------

Milagro y 		    resurrección, 
e:-------2-------2--------2------------------0-------0--------0------------
B:-----1-------1--------1------------------0-------0--------0---------0----
G:---2---------2--------2----------------0---------0--------0--------0-----
D:-0---------0--------0--------0-------2---------2--------2--------2-------
A:-------------------------------------------------------------------------
E:-------------------------------------------------------------------------

y eso que estaba 		tieso,				bajo control.
e:-------2-------2---------2-----------------------------------------------
B:------------------------------------------0--------0--------0------------
G:-----4-------4---------4--------4-------2--------2--------2---------2----
D:---4---------4---------4-------4-------0---------0--------0--------0-----
A:-2---------2---------2-------2-------2---------2--------2--------2-------
E:-------------------------------------------------------------------------
								(fill)

	
		El poder siempre mata,
e:------------------------------------
B:-------3-------3---------3-------3--
G:-----4-------4---------4-------4----x2
D:---5---------5---------5-------5----
A:------------------------------------
E:-3---------3---------3-------3------

si para tenerte aquí habría que maltratarte 

(se detiene la musica, de aca en adelante no se 
llega a escuchar muy bien la guitarra en el resto de la estrofa, tengo 
las sospechas de que el guitarrista muere temporalmente)
		
e:------------------------------------
B:-------3-------3--------3---------3-
G:-----0-------0--------0---------0---x2
D:---0---------0--------0--------0----
A:------------------------------------
E:-2---------2--------2--------2------

No puedo hacerlo, 	   sos mi Dios		 	
e:-------0-------0--------0------------------0-------0--------0------------
B:-------------------------------------------------------------------------
G:-----0-------0--------0---------0--------0-------0--------0----------0---
D:---2---------2--------2--------2-------2---------2--------2--------2-----
A:-------------------------------------3---------3--------3--------3-------
E:-0---------0--------0--------0-------------------------------------------

te veo me sonrojo y		tiemblo				 
e:-------2--------2--------2-----------------0-------0------0--------------
b:-----1--------1--------1---------1---------------------------------------
G:----2---------2--------2--------2--------0-------0------0--------0-------
D:-0---------0--------0--------0---------2---------2------2------2---------
A:-------------------------------------3---------3------3------3-----------
E:-------------------------------------------------------------------------

Que idiota te hace 		  el amor,
e:-------2--------2--------2-----------------0-------0--------0------------
B:-----1--------1--------1---------1-------0-------0--------0--------0-----
G:---2----------2--------2--------2------0---------0--------0-------0------
D:-0---------0--------0--------0-------2---------2--------2--------2-------
A:-------------------------------------------------------------------------
E:-------------------------------------------------------------------------

y hoy quiero darle rienda a esta superstición
e:-------2-------2---------2-----------------------------------------------
B:-------------------------------------------0-------0--------0------------
G:-----4-------4---------4--------4--------2-------2--------2---------2----
D:---4---------4---------4-------4-------0---------0--------0--------0-----
A:-2---------2---------2-------2-------2---------2--------2--------2-------
E:-------------------------------------------------------------------------
									(C)


Estribillo 2
C 	             G                  
oooooohh - oooohhhh  un pacto para vivir
C 	             G                  
oooooohh - oooohhhh  un pacto para vivir
C 		     G	      		Em C
oooooohh - oooohhhh  un pacto para vivir
G               C        G   C        G  C-G
Un Pacto........para vivir, para vivir
     (fill)		(fill)       (fill)

Hay una especie de fill 
e:-----7-------------
B:----------5-----8--
G:---0----0----0-----
D:-------------------
A:-------------------
E:-------------------

Fuente original: LaCuerda
Colaborador original: Ariel Mello [[email protected]]
Aviso: Este fichero es trabajo propio de su transcriptor y representa su interpretación personal de la canción. El material contenido en esta página es para exclusivo uso privado, por lo que se prohibe su reproducción o retransmisión, así como su uso para fines comerciales.

Califica esta canción


Comentarios en Facebook