Enviado por:
Anonimo

Bersuit Vergarabat, El Gordo Motoneta

Imprimir
Este es el bajo de el gordo motoneta... es muy sencillo.... practicalo y
 tene en cuenta los Silencios entre medio de las notas.  Escucha el tema bien. 
 Suerte!!!


Introducción:
E|--------------------------------------------------------
D|-------------------------------------------------------
A|--1>13------13-13-13-13-13-13--13-13-13-13---
E|-------------------------------------------------------

E|------------------------------------------------------------------
D|------------------------------------------------------------------
A|--17-17-17-17-15-15-15-15--13-13-13-13--------------------
E|------------------------------------------------------------------------




E|--------------------------------------------
D|-------------------------------------------     repite eso durante las estrofas
A|--------7---------------------10--13-----
E|----8-8---8----8>11----11---------------



En la parte de “se siente contenta la gente cuando el esta ausente....” toca esto:
Es muy importante el ritmo que le des a esto....

       A#                  A#/A                  G
E|----------------------------------------------------------------------------
D|--------------15-------------------15---------------12-----------------
A|----13--13-------13-----12--12-------12----10--10-------10------------
E|-----------------------------------------------------------------------------

        D#           A#           D#        G                     F
E|-----------------------------------------------------------------------------------
D|---------8----------------------------8---------------12---------------9----------
A|---6-6------6-----------8-------6-6----6---10--10------10----7--7-----7------
E|------------------6--6------6------------------------------------------------------ 

         (lo mismo con un cambio en el final)
         A#                 A#/A              G
E|----------------------------------------------------------------------------
D|--------------15-------------------15---------------12-----------------
A|----13--13-------13-----12--12-------12----10--10-------10------------
E|-----------------------------------------------------------------------------

       D#            A#         D#           G
E|-------------------------------------------------------------------------------------
D|---------8----------------------------8---------------------------------------------
A|---6-6------6---------8-------6-6----6---------------------------------------------
E|------------------6-6------6---------------3-3-3-3-3-3-3-3------------------------





ESTRIBILLO:
E|------------------------------------------------------------------------
D|---------------------------------------------------------------------------
A|-----------------------------------------------------------------------------
E|--10-10-10-10--8-8-8-8--6-6-6-6--8-8-8-8-10-10-10-10--8-8-8-8--6-6-6-6----
      El gordo motoneta no puede parar......
   




E|--------------------------------------------
D|-------------------------------------------     
A|--------5---------------------10--13-----
E|----6-6---6----6>11----11---------------

Ratatin ratatin.... (rata)  y ratatin ratatin  (rata) ratatin ratatin (rata) 
che ratatin ratatin  (rata)

Fuente original: LaCuerda
Colaborador original: Joaquin Dominguez [[email protected]]
Aviso: Este fichero es trabajo propio de su transcriptor y representa su interpretación personal de la canción. El material contenido en esta página es para exclusivo uso privado, por lo que se prohibe su reproducción o retransmisión, así como su uso para fines comerciales.

Califica esta canción


Comentarios en Facebook