Acordes y tablaturas para guitarra

Acordes y Tablaturas
Usuario: Password:

Buscar:
Acordes y Tablaturas >> Letra V >> Acordes de Vicente Fernandez >> Mi Querido Viejo
Tablatura de Mi Querido Viejo, Vicente Fernandez

Mi Querido Viejo

Vicente Fernandez






ES UN BUEN TIPO MI VIEJO
   --8--5--0---8--5--0--7--4--
   ---------------------------
   ---------------------------
         F     G          C
     QUE ANDA SOLO Y ESPERANDO
   --5--------5?----------3--0--
   -----6--3----6--3------------
   -----------------------------
    E7                  Am
     TIENE LA TRISTEZA LARGA
   --4--5--7--7--5--7--8--5--
   --------------------------
   --------------------------
    E7                  Am
     DE TANTO VENR ANDANDO
   --4--5--7--7--5--7--8--5--
   --------------------------
   --------------------------


G-Am                  E7
     YO LO MIRO DESDE LEJOS
   --8--5--0--8--5--0--7--4--
   --------------------------
   --------------------------
      F    G            C
     PERO SOMOS TAN DISTINTOS
   --5--------5?---------3--0--
   -----6-3-----6-3------------
   ----------------------------
    E7                     Am
     ES QUE CRECIO CON EL SIGLO
   --7--8--10---10--8--7--12--8--
   ------------------------------
   ------------------------------
     G                   C   E7
     CON TRANVIA Y VINO TINTO.
   --10--12--13-13-12-10-15-12--
   -----------------------------
   -----------------------------


                        Am
     VIEJO MI QUERIDO VIEJO
   --10-7--7--7--7-10-7-8-5----
   ----------------------------
   ----------------------------
       G               C
     AHORA YA CAMINAS LENTO
  --10--10-10-10--15--15-12-8--
  -----------------------------
  -----------------------------
      E7                  Am
     COMO PERDONANDO EL VIENTO
   --7--7-7--7--10---7--8---5--
   ----------------------------
   ----------------------------
      E7                  Am
     YO SOY TO SANGRE MI VIEJO
   --12--10-12-10--12-10-12--8--
   -----------------------------
   -----------------------------
      E7                  Am
     SOY TU SILENCIO Y TU TIEMPO.
   --12--10--12--10-12-10-12--8--
   ------------------------------
   ------------------------------


 G-Am                    E7
     EL TIENE LOS OJOS BUENOS
   --8--5--0--8--5--0--7--4--
   --------------------------
   --------------------------
       F      G      C
     Y UNA FIGURA PESADA
   --5--------5?---------3--0--
   -----6-3-----6-3------------
   ----------------------------
    E7                     Am
     LA EDAD SE LE VINO ENCIMA
   --7--8--10---10--8--7--12--8--
   ------------------------------
   ------------------------------
    E7                   Am
     SIN CARNAVAL NI COMPARSA.
   --10--12--13-13-12-10-15-12--
   -----------------------------
   -----------------------------


 G-Am                    E7
     YO TENGO LOS ANOS NUEVOS
   --8--5--0---8--5--0--7--4--
   ---------------------------
   ---------------------------
     F       G            C
     EL HOMBRE LOS ANOS VIEJOS
   --5--------5?---------3--0--
   -----6-3-----6-3------------
   ----------------------------
     E7                 Am
     EL DOLOR LO LLEVA DENTRO
   --7--8--10---10--8--7--12--8--
   ------------------------------
   ------------------------------
     G                        C    E7
     Y TIENE HISTORIAS SIN TIEMPO
   --10--12--13-13-12-10-15-12--
   -----------------------------
   -----------------------------
                        Am
     VIEJO MI QUERIDO VIEJO. ETC.....

Que te parecio? Calificalo con estrellas!!

Rating: 7.9/10 (328 votos)

Este fichero es trabajo propio de su transcriptor y representa su interpretación personal de la canción. El material contenido en esta página es para exclusivo uso privado, por lo que se prohibe su reproducción o retransmisión, así como su uso para fines comerciales.


Comentario de danielito762
lacuerda.net
Deja tus comentarios:
Letras de canciones | Musica Independiente