Enviado por:
Anonimo

Bersuit Vergarabat, Convalescencia En Valencia

Imprimir
Convalescencia en Valencia (sólo)|
----------------------------------
esta es mi version del solo, suerte!!

e|---------------------------------------------------------------
b|---------------------------------------------------------------
g|-------5p7-------------7p5------7-7-------------5--------------
d|------------------------------------8-8-7--7-8----8-7----------
a|---------------------------------------------------------------
E|---------------------------------------------------------------

e|-----------------------------------------------------------11--
b|--------------------------------6-8-10p11--11p13--11--10p8-----
g|-------------------------5-7-8---------------------------------
d|-4-4--5--7p8--5----5-7-8---------------------------------------
a|---------------------------------------------------------------
E|---------------------------------------------------------------

e|------------------------------10--11--8--10-----------------10-
b|--10-11--10p11p10---------11------------------11-10-------11---
g|-------------------11-12----------------------------11-12------
d|---------------------------------------------------------------
a|---------------------------------------------------------------
E|---------------------------------------------------------------

e|-11---15-------------------------------------------------------
b|--------15------11-10-8-7p8p7----------------------------------
g|----------------------------------------3p5p3------------------
d|-----------------------------------------------8-7-5-4p5p4-----
a|---------------------------------------------------------------
E|---------------------------------------------------------------

e|----------------5-------------8--------------------------------
b|--------------7---8-7-8-10-11---10---7-8-10-11-----------------
g|----------5-7----------------------------------7-5-------------
d|----5-7-8------------------------------------------8-7-5-4-5---
a|---------------------------------------------------------------
E|---------------------------------------------------------------

Fuente original: LaCuerda
Colaborador original: Bruno Ricci [[email protected]]
Aviso: Este fichero es trabajo propio de su transcriptor y representa su interpretación personal de la canción. El material contenido en esta página es para exclusivo uso privado, por lo que se prohibe su reproducción o retransmisión, así como su uso para fines comerciales.

Califica esta canción


Comentarios en Facebook