Enviado por:
Anonimo

Bersuit Vergarabat, Convalescencia En Valencia

Imprimir
Esta es una correccion del tema porque la verdad dejan mucho... 
bastante que desear. Estos son los acordes originales, 
si tenes la guitarra afinada a 440. Ahí
les va:



Intro sobre estos acordes:

Gm Gm/F Fº Cm (Dos veces)

    Gm                     Gm/F
(*1)Hay alguien en la luna de valencia
                         Fº
que ayer fue a dar una vuelta
                    C-
y se quedo a vivir alla
D7sus4               Bbmaj7
Yo lo conozco es un amigo infiel,
 C-                     D7sus4
se cortó solo y se lastimó.


(*1)Tal vez algunos que otros de aquel barrio,
compañeros de escenario, lo podamos rescatar
porque una voz querida cruza el mar
y toca fibras ínfimas.

Estribillo
Gm      Gm/F                 Ebmaj6  D7sus4
Más....    cuando se anda tan lejos.
Gm          Gm/F           Ebmaj6 D7sus4
Pidiendo auxilio en el desierto.
G        Fº          Cm
Desintegrado en un cráter cayó.
Ab     Bb              Csus4 C
Y esta aturdido y sin reflejo.
Gm            Gm/F      Ebmaj6  Dsus4
Y  ...  llora cuando recuerda
Gm    Gm/F            Bbmaj6 D7sus4
ese amor que lo hizo mierda.
G         Fº           Cm
o porque no quiere reconocer,
Ab             Bb        Csus4 C
que es un maldito argentino.


(*1) Zarpado a full de fobia
Y sienta siempre un mal de amor lamenta,
Lleva una daga en el pecho.
Esta es la ofrenda de una dama que no quiso reír.
Y un viaje lento hasta una luna sin miel.
Quedarse es tan triste como irse.
El que sufre una certeza solo sabe equivocarse.
Y va perdido esperando una señal
Es preso en la pluma de la iglesia.

Estribillo


Gm        Gm/F      Ebmaj6  D7sus4
Y llora cuando recuerda,
Gm     Gm/F          Ebmaj6  D7sus4
ese amor que lo hizo mierda.
G      Fº        Cm
Es que no quiere reconocer,
          Ab  Gm             Cm
que está solo en la luna de Valencia.
Ab  Gm                     Cm
Solo... en la luna de Valencia.
Ab     Bb                   Gm
Solo... en la luna de valencia.




*NOTA: Cada vez que hace Cm ustedes notaran que hace una especie 
de “cadencia” esa parte es así (háganla cuando hagan Cm):

E||----------------|----------------------|----1---3----|------------||
B||----3-----3-----|----------------------|-3---------4-|-3----------||
G||-0-----2------3-|-3----------3-------0-|-------------|--5-3-2-0-2-||
D||----------------|----4---0-------4-----|-------------|---------4--||
A||----------------|----------------------|-------------|------------||
E||----------------|----------------------|-------------|------------||

ACORDES:
     Gm   Gm/F  Fº  Cm  D7sus4  Bbmaj7 Ebmaj6  G   Ab  Bb  Csus4  C
 E----3----3----1----3----3------1------3------3----4---1----1----0---
 B----3----3----3----4----1------3------3------0----4---3----1----1---
 G----3----3----1----5----2------2------3------0----5---3----0----0---
 D----X----X----3----5----0------3------1------0----6---3----2----2---
 A----X----X----2----3----x------1------x------2----6---1----3----3---
 E----3----1----1----X----x------x------x------3----4---x----x----x---

Espero que les sirva mi transcripcion, la verdad me costo bastante hacerla. 
Muchas gracias por su tiempo. Alguna sugerencia o comentario escribanme.

  Gracias!!

               AGUANTE LA CRISIS

Fuente original: LaCuerda
Colaborador original: santiago moreno [[email protected]]
Aviso: Este fichero es trabajo propio de su transcriptor y representa su interpretación personal de la canción. El material contenido en esta página es para exclusivo uso privado, por lo que se prohibe su reproducción o retransmisión, así como su uso para fines comerciales.

Califica esta canción


Comentarios en Facebook