Enviado por:
Anonimo

Bersuit Vergarabat, Al Olor Del Hogar

Imprimir
Bersuit Vergarabat  -  Al olor del hogar   (tab)
 
Intro: con acordeón ( o armónica) 
 
e//---------7-----5-------3----------------/--7----10-----8---------------------------------//
B//----------------------------------------------/--------------------------------------------//
G//----------------------------------------------/--------------------------------------------//
D//----------------------------------------------/--------------------------------------------//
A//----------------------------------------------/--------------------------------------------//
E//----------------------------------------------/--------------------------------------------//
 
 
e//--------12---10---8----7--8--7-----------/---5----7--------10---------------------//
B//----------------------------------------------/--------------------------------------------//
G//----------------------------------------------/--------------------------------------------//
D//----------------------------------------------/--------------------------------------------//
A//----------------------------------------------/--------------------------------------------//
E//----------------------------------------------/--------------------------------------------//
  
e//--------14---12---10----8--10-------8----7-/-------8--------12-----------------------------//
B//----------------------------------------------/--------------------------------------------//
G//----------------------------------------------/--------------------------------------------//
D//----------------------------------------------/--------------------------------------------//
A//----------------------------------------------/--------------------------------------------//
E//----------------------------------------------/--------------------------------------------//
 e//------5-------------7------------------5----------//
B//-----------------------------------------------//
G//----------------------------------------------//
D//----------------------------------------------//
A//----------------------------------------------//
E//----------------------------------------------//

Final:

e//---------7-----5-------3----------------/--7----10-----8---------------------------------//
B//----------------------------------------------/--------------------------------------------//
G//----------------------------------------------/--------------------------------------------//
D//----------------------------------------------/--------------------------------------------//
A//----------------------------------------------/--------------------------------------------//
E//----------------------------------------------/--------------------------------------------//
 
 
e//--------12---10---8----7--8--7-----------/---5----7--------10---------------------//
B//----------------------------------------------/--------------------------------------------//
G//----------------------------------------------/--------------------------------------------//
D//----------------------------------------------/--------------------------------------------//
A//----------------------------------------------/--------------------------------------------//
E//----------------------------------------------/--------------------------------------------//
  
e//--------14---12---10----8--10-------8----7-/-------8--------12-----------------------------//
B//----------------------------------------------/--------------------------------------------//
G//----------------------------------------------/--------------------------------------------//
D//----------------------------------------------/--------------------------------------------//
A//----------------------------------------------/--------------------------------------------//
E//----------------------------------------------/--------------------------------------------//

Final x 2 + esto :


e//---------5------------7----------------3----------//
B//---------------------------------------0--------//
G//-------------------------------------0---------//
D//--------------------------------------0--------//
A//--------------------------------------2--------//
E//---------------------------------------3-------//

eso es todo espero q les sirva , y nos vemos la proxima.
cualquier cosa escriban a : [email protected]

dipu.

Fuente original: LaCuerda
Colaborador original: Gaston Echenique [[email protected]]
Aviso: Este fichero es trabajo propio de su transcriptor y representa su interpretación personal de la canción. El material contenido en esta página es para exclusivo uso privado, por lo que se prohibe su reproducción o retransmisión, así como su uso para fines comerciales.

Califica esta canción


Comentarios en Facebook