Enviado por:
guitarra del futcho

Enanitos Verdes, Luz De Dia

Intro:
  Am    G        F            C
1-----------------------------------------
2---------------------------6-5---5-5-----
3----4---------4-5-----------7-5-----7~---
4-7~--7-5~-5-7----7-7-5-7~------7---------
                Am
Destapa el champagne
           G
apaga las luces
             F
dejemos las velas encendidas 
     C          G
y afuera las heridas

               Am
Ya no pienses mas
                1----3--------------
                2-3h5--5-3----------
              G 3---------4~--------
en nuestro pasado
              F
hagamos que choquen 
             
nuestras copas
       C            G
por habernos encontrado

           C              G
Y porque puedo mirar el cielo,
           Am                F 
besar tus manos, sentir tu cuerpo,
          C              G
decir tu nombre y las caricias
           Am                 F
seran la brisa que aviva el fuego 
          C     G           Am-F               
de nuestro amor, de nuestro amor
   C              G                Am
Puedo ser luz de noche ser luz de dia, 
           F              C
frenar el mundo por un segundo
         G                Am
y las caricias seran la brisa
               F
que aviva el fuego                      Am                   Am-F
                          1---12~-12-13-15-13-12-13-12-10-8~---  
         C                 G
de nuestro amor, de nuestro amor.

SOLO:
e:-------7--------------------------------7--7--10/12--13--15---
B:-10p7-----7--------------------7/8---7------------------------
G:-------------9--7--------7--9---------------------------------
D:-------------------9B--9--------------------------------------
A:--------------------------------------------------------------
E:--------------------------------------------------------------

e:--13--12--13--10--12--10--8----7H8P7-HASTA AQUI PUEDEN PARAR  SE ESCUCHA BN PERO SI DESEAN ALARGARLO UN POCO MAS PUEDEN SEGUIR CON ESTO AUNQ NO ESTO MUY SEGUR Q SEA HACI PERO NO SE ESCUCHA TAN MAL
B:-8--7---------5/7--5------------------------------------------
G--------7--5---------------------------------------------------
Aviso: Este fichero es trabajo propio de su transcriptor y representa su interpretación personal de la canción. El material contenido en esta página es para exclusivo uso privado, por lo que se prohibe su reproducción o retransmisión, así como su uso para fines comerciales.
comentario del colaborador: BUENO ES MI PRIMER TABLATURA Y LOS ACORDES YO NO LOS SAQUE YO PERO ESTAN CORRECTOS EL SOLO DE OTRAS TABLATURAS NO MO COMPLACIA HACI ES Q SAQUE MI PROPIO SOLO Y QUIERO SU OPINION DE COMO QUEDO GRAX POR VER ESTA TABLATURA Y SEAN SINCEROS

Califica esta canción


Comentarios en Facebook