Acordes y tablaturas para guitarra

Acordes y Tablaturas
Usuario: Password:

Buscar:
Acordes y Tablaturas >> Letra D >> Acordes de David Aguilar >> Eco
Tablatura de Eco, David Aguilar

Eco

David Aguilar






Intro:
    E                          Am
e|-----------2-----2-----------------------2-----2-----------|
B|--------0-----0-----0-----------------1-----1-----1--------|
G|-----1-----------------1-----------2-----------------2-----|
D|--------------------------2-----2-----------------------2--|
A|-----------------------------0-----------------------------|
E|--0--------------------------------------------------------|

    E                          Am
e|-----------2-----2-----------------------2-----2--------|
B|--------0-----0-----0-----------------1-----1-----1-----|
G|-----1-----------------1-----------2-----------------2--|
D|--------------------------2-----2-----------------------|
A|-----------------------------0--------------------------|
E|--0-----------------------------------------------------|

*Silencio

   Le tocóasa tu rno tu rno
e|-------------------------|
B|--5--4----------7-----7--|
G|-------------4-----4-----|
D|-------6--7--------------|
A|-------------------------|
E|-------0-----------0-----|


   en tretu mi ra da ha  da
e|-----7--5--4-----4-----4--|
B|--4-----------------------|
G|--------------5-----5-----|
D|--------------------------|
A|-----------0--------------|
E|--------------------------|


  puescon teles copio copio
e|--4--2--0-----------------|
B|-----------4-----5-----5--|
G|--------------------------|
D|--------------6-----6-----|
A|-----------0--------------|
E|--------------------------|

   en sí lo queretra ta tra ta
e|-----------4--5--4-----4-----|
B|-----5--7-----------7-----7--|
G|--6--------------------------|
D|-----------------------------|
A|-----------------0-----------|
E|-----------------------------|

   de queyo aluci ne ci ne
e|--------4--------0-----0-----0--|
B|-----7--------5--7--5--7--5-----|
G|--6--------6--6-----6-----------|
D|--------------------------------|
A|--------0-----------------------|
E|--------------------------------|


   Nunca tupa la bra labra
e|-------------------------|
B|--5--4----------7-----7--|
G|-------------4-----4-----|
D|-------6--7--------------|
A|-------------------------|
E|-------0-----------0-----|

   a  mí se nti mieto miento
e|-----7--5--4-----4-----4--|
B|--4-----------------------|
G|--------------5-----5-----|
D|--------------------------|
A|-----------0--------------|
E|--------------------------|

   yesque tupla neta ne ta
e|--4--2--0-----------------|
B|-----------4-----5-----5--|
G|--------------------------|
D|--------------6-----6-----|
A|-----------0--------------|
E|--------------------------|

    sien do  para  iso   hizo
e|-----------4--5--4-----4-----|
B|-----5--7-----------7-----7--|
G|--6--------------------------|
D|-----------------------------|
A|-----------------0-----------|
E|-----------------------------|

   atodielu ni verso  verso
e|--------4--------0-----0------|
B|-----7--------5--7--5--7---5--|
G|--6--------6--6-----6---------|
D|------------------------------|
A|-----------0-----0------------|
E|------------------------------|

    U  na mari  posa  po sa
e|--------------4-----4-----|
B|--5--4-----7-----7-----7--|
G|--------6-----------------|
D|--------------------------|
A|--------0-----------------|
E|--------------------------|

    sobre tuca be llo bello
e|--------------------------|
B|--5--4--------5-----5-----|
G|-----------------5-----5--|
D|--------6--7--------------|
A|--------------------------|
E|--------0-----------------|

   porque tutardanza danza
e|--------------4-----4-----|
B|--5--4-----7-----7-----7--|
G|--------6-----------------|
D|--------------------------|
A|--------0-----------------|
E|--------------------------|

    hace unaata dura  dura
e|--------------------------|
B|--5--4-----------7-----7--|
G|--------------4-----4-----|
D|--------6--7--------------|
A|--------------------------|
E|--------0-----------0-----|

 mientrasyo acu pi do  pi do
e|--------------0-----0-----|
B|--5--4-----4-----4-----4--|
G|--------6-----------------|
D|--------------------------|
A|--------0-----------------|
E|--------------------------|

  queentremiscompaces pases
e|-----------------0-----0--|
B|--7--5--4-----4-----4-----|
G|-----------6--------------|
D|--------------------------|
A|--------0-----------------|
E|--------------------------|

    a de jar de seren este hu eco ec o
e|--------------5--4-----------0-----0--|
B|--4--------5--------7--5--4-----4-----|
G|-----6--4-----------------------------|
D|--------------------------------------|
A|--------0-----------------0-----------|
E|--------------------------------0-----|

e|-----0-----0-----0-----0--|
B|--4-----4-----4-----4-----|
G|--------------------------|
D|--------------------------|
A|--------------------------|
E|--------------------------|

e|-----0-----0-----0-----0--|
B|--4-----4-----4-----4-----|
G|--------------------------|
D|--------------------------|
A|--0-----------------------|
E|--------------------------|


AQUÍ la música y el verso se repiten desde el intro hasta:
"...que entre mis compaces pases" y la siguiente frase dice


    a dejar de ser tansólo imagi na da nada más
e|--------------5--4-----------------0-----0-----0--|
B|--4--------5--------7--5--4-----4-----4-----4-----|
G|-----6--4--------------------6--------------------|
D|--------------------------------------------------|
A|--------0-----------------------0-----------------|
E|--------------------------------------------0-----|

e|-----0-----0-----0-----0--|
B|--4-----4-----4-----4-----|
G|--------------------------|
D|--------------------------|
A|--------------------------|
E|--------------------------|

e|-----0-----0-----0-----0--|
B|--4-----4-----4-----4-----|
G|--------------------------|
D|--------------------------|
A|--0-----------------------|
E|--------------------------|

    Tuiri si san me si matiu matiu o algo así
e|-----------2-----2-----------------------2-----2-----------|
B|--------0-----0-----0-----------------1-----1-----1--------|
G|-----1-----------------1-----------2-----------------2-----|
D|--------------------------2-----2-----------------------2--|
A|-----------------------------0-----------------------------|
E|--0--------------------------------------------------------|

    Tuiri si san me si matiu matiu o algo así          mmmmmmjmmmuummmmm
e|-----------2-----2-----------------------2-----2-----------------------0--|
B|--------0-----0-----0-----------------1-----1-----1-----------------0-----|
G|-----1-----------------1-----------2-----------------2-----------1--------|
D|--------------------------2-----2-----------------------------4-----------|
A|-----------------------------0-----------------------------2--------------|
E|--0-----------------------------------------------------0-----------------|






By: *nÉbLiiCa*

Que te parecio? Calificalo con estrellas!!

Rating: 3.7/10 (22 votos)

Este fichero es trabajo propio de su transcriptor y representa su interpretación personal de la canción. El material contenido en esta página es para exclusivo uso privado, por lo que se prohibe su reproducción o retransmisión, así como su uso para fines comerciales.


Deja tus comentarios:
Letras de canciones | Musica Independiente