Acordes y tablaturas para guitarra

Acordes y Tablaturas
Usuario: Password:

Buscar:
Acordes y Tablaturas >> Letra N >> Acordes de Nectar >> Pecadora
Tablatura de Pecadora, Nectar

Pecadora

Nectar






am                     em
e|--8-7-8------8-7-8------7-5-7------7-5-7---------
b|-5-----5-5--5-----5-5--5-----5-5--5-----5-5------
G|-------------------------------------------------
D|-------------------------------------------------
A|-------------------------------------------------
E|-------------------------------------------------

     F                             E
e|--5-3-5--------5-3-5-----------------------------
b|5-------6-6--6-------6-6---3-5-6-6-5-5---6-5-5---
G|-------------------------------------------------
D|-------------------------------------------------
A|-------------------------------------------------
E|-------------------------------------------------


    am                     em
e|--8-7-8------8-7-8------7-5-7------7-5-7---------
b|-5-----5-5--5-----5-5--5-----5-5--5-----5-5------
G|-------------------------------------------------
D|-------------------------------------------------
A|-------------------------------------------------
E|-------------------------------------------------

F                             E
e|--5-3-5--------5-3-5-----------------------------
b|5-------6-6--6-------6-6---3-5-6-6-5-5---10-8-10-
G|-------------------------------------------------
D|-------------------------------------------------
A|-------------------------------------------------
E|-------------------------------------------------

          am
Dice la gente
            dm
que no eres señora
      G
dice la gente
             C
que tu eres pecadora
     dm
por tener tantos amores
      am
en la vida
        F                E
que tu cariño esta lleno de mentiras

    am                     em
e|--8-7-8------8-7-8------7-5-7------7-5-7---------
b|-5-----5-5--5-----5-5--5-----5-5--5-----5-5------
G|-------------------------------------------------
D|-------------------------------------------------
A|-------------------------------------------------
E|-------------------------------------------------

     F                             E
e|--5-3-5--------5-3-5-----------------------------
b|5-------6-6--6-------6-6---3-5-6-6-5-5---6-5-5---
G|-------------------------------------------------
D|-------------------------------------------------
A|-------------------------------------------------
E|-------------------------------------------------

     am
Dice la gente
            dm
que no eres señora
      G
dice la gente
             C
que tu eres pecadora
     dm
por tener tantos amores
      am
en la vida
        F                E
que tu cariño esta lleno de mentiras

am             dm
eres pecadora mujer pecadora
     G
pero mi corazon
                C
te ama y te adora mas
am             dm
eres pecadora mujer pecadora
F                  E
que importa lo que diga el mundo
        am
te amo señora

    am                     em
e|--8-7-8------8-7-8------7-5-7------7-5-7---------
b|-5-----5-5--5-----5-5--5-----5-5--5-----5-5------
G|-------------------------------------------------
D|-------------------------------------------------
A|-------------------------------------------------
E|-------------------------------------------------

     F                             E
e|--5-3-5--------5-3-5-----------------------------
b|5-------6-6--6-------6-6---3-5-6-6-5-5---6-5-5---
G|-------------------------------------------------
D|-------------------------------------------------
A|-------------------------------------------------
E|-------------------------------------------------


    am                     em
e|--8-7-8------8-7-8------7-5-7------7-5-7---------
b|-5-----5-5--5-----5-5--5-----5-5--5-----5-5------
G|-------------------------------------------------
D|-------------------------------------------------
A|-------------------------------------------------
E|-------------------------------------------------

F                             E
e|--5-3-5--------5-3-5-----------------------------
b|5-------6-6--6-------6-6---3-5-6-6-5-5---10-8-10-
G|-------------------------------------------------
D|-------------------------------------------------
A|-------------------------------------------------
E|-------------------------------------------------


  am
Dice la gente
            dm
que no eres señora
      G
dice la gente
             C
que tu eres pecadora
     dm
por tener tantos amores
      am
en la vida
        F                E
que tu cariño esta lleno de mentiras

am             dm
eres pecadora mujer pecadora
     G
pero mi corazon
                C
te ama y te adora mas
am             dm
eres pecadora mujer pecadora
F                  E
que importa lo que diga el mundo
        am
te amo señora

   Am      Dm   G      C   Am     Dm   E        Am
e|-----3-5-----------3-------------------------------
b|-5-5-----6---3-5-6---5-----5-6-3---3-5-6-5-5-3---5-
G|-----------------------5-5---------------------5---
D|---------------------------------------------------
A|---------------------------------------------------
E|---------------------------------------------------

am             dm
eres pecadora mujer pecadora
     G
pero mi corazon
                C
te ama y te adora mas
am             dm
eres pecadora mujer pecadora
F                  E
que importa lo que diga el mundo
        am
te amo señora

   Am      Dm   G      C   Am     Dm   E        Am
e|-----3-5-----------3-------------------------------
b|-5-5-----6---3-5-6---5-----5-6-3---3-5-6-5-5-3---5-
G|-----------------------5-5---------------------5---
D|---------------------------------------------------
A|---------------------------------------------------
E|---------------------------------------------------

Que dios los tenga en su gloria.........Grupo Nectar
xfa si tienen sueltame suban

Que te parecio? Calificalo con estrellas!!

Rating: 5.4/10 (21 votos)

Este fichero es trabajo propio de su transcriptor y representa su interpretación personal de la canción. El material contenido en esta página es para exclusivo uso privado, por lo que se prohibe su reproducción o retransmisión, así como su uso para fines comerciales.


Deja tus comentarios:
Letras de canciones | Musica Independiente