Enviado por: joes
Agrandar Letra
Reducir Letra
Imprimir


Otras Versiones de Riff-raff:




Ac/dc, Riff-raff

Bueno gente, aqui les dejo la tablatura, la cual creo esta 100% correcta (aunque faltan partes,pero son faciles de sacar)



-Introduccion-


[Primera Guitarra--Angus]
|----------|-----------------------|:
|----------|-----------------------|:
|----------|--7-7-7-7-7-7-7-7-7-7-7|:
|----------|--4-5-4-5-4-5-4-5-4-5-4|:
|---0---0 -|-----------------------|:
|----------|-----------------------|:

[Segunda Guitarra--Malcolm]

|----------------------------------|
|----------------------------------|
|----------------------------------|
|----------------------------------|
|-0----0----0----------------------|
|----------------------------------|

*La segunda guitarra toca A0 entre cada acorde de la primera guitarra*


-Riff Principal (tocado por Angus)

|-----------------------------------|:
|--------------------------------2--|:
|--------------------------------2--|:
|----------2--4---------5----4---2--|:
|---0t-s4--------3--0------3-----0--|:
|-----------------------------------|:
Aviso: Este fichero es trabajo propio de su transcriptor y representa su interpretación personal de la canción. El material contenido en esta página es para exclusivo uso privado, por lo que se prohibe su reproducción o retransmisión, así como su uso para fines comerciales.
comentario del colaborador: Disfrutenla!

Califica esta canción


Comentarios en Facebook