Enviado por: maxguitar
Agrandar Letra
Reducir Letra
Imprimir

Acordes:
½ tono
| +0 |
½ tono
||
Volver

Otras Versiones de Suelta Mi Mano:




Sin Bandera, Suelta Mi Mano

ACORDES   Em   D   C   Em7   Am   B7

    Em      D     D
E-0-0-0--0--x-x----------------------------------------
A-2-2-2--2--0-0----------------------------------------
D-2-2-2--2--0-0----------------------------------------
G-0-0-0--0--2-2-----2----------------------------------
B-0-0-0--0--3-3----3-3---3-----------------------------
e-0-0-0--0--2-2-3-2---2h3------------------------------

no no es necesario q lo entienda, porque nunca le ha

E----------------------------------------------------
A-3-------2----------------0-------2-----------------
D----------------------------------------------------
G--0---0---0---0------------2---2----2---2-----------
B---1---1---3---3------------1---1----0---0----------
e----0-------0----------------0--------2-------------
servido la razon al corazon el corazon no piensa



E-0-0-0--0--x-x----------------------------------------
A-2-2-2--2--0-0----------------------------------------
D-2-2-2--2--0-0----------------------------------------
G-0-0-0--0--2-2-----2----------------------------------
B-0-0-0--0--3-3----3-3---3-----------------------------
e-0-0-0--0--2-2-3-2---2h3------------------------------

y no mi vida para q te esfuerzas,no m tienes q explicar
E----------------------------------------------------
A-3-------2----------------0-------2-----------------
D----------------------------------------------------
G--0---0---0---0------------2---2----2---2-----------
B---1---1---3---3------------1---1----0---0----------
e----0-------0----------------0--------2-------------
simpre amare tu libertad por mucho q eso duela



Precoro:
   Am                           D
Y si, entiendo que quieres hablar
                             G
que a veces necesitas saber de mí,
  D                     C
pero no se si quieras saber de ti,
  Em7         Am
vivir así, seguir así
    D
pensando en tí,

Coro:
                G        C
Suelta mi mano ya por favor
                 D        Em
entiende que me tengo que ir
                  C        Am
si ya no sientes mas este amor
               D         G
no tengo nada mas que decir,

               A        D
No digas nada ya por favor
                     E7       F#m
te entiendo pero entiendeme a mí
                D         Bm
cada palabra aumenta el dolor
       D             E7      Em
y una lagrima  que quiere salir,

E-0-0-0--0--x-x----------------------------------------
A-2-2-2--2--0-0----------------------------------------
D-2-2-2--2--0-0----------------------------------------
G-0-0-0--0--2-2-----2----------------------------------
B-0-0-0--0--3-3----3-3---3-----------------------------
e-0-0-0--0--2-2-3-2---2h3------------------------------

y porfavor no m detengas, simpre encuentro la manera

E----------------------------------------------------
A-3-------2----------------0-------2-----------------
D----------------------------------------------------
G--0---0---0---0------------2---2----2---2-----------
B---1---1---3---3------------1---1----0---0----------
e----0-------0----------------0--------2-------------
de seguir y de vivir , aunque ahora no la tenga



E-0-0-0--0--x-x----------------------------------------
A-2-2-2--2--0-0----------------------------------------
D-2-2-2--2--0-0----------------------------------------
G-0-0-0--0--2-2-----2----------------------------------
B-0-0-0--0--3-3----3-3---3-----------------------------
e-0-0-0--0--2-2-3-2---2h3------------------------------

y no mi vida no vale la pena, para que quieres llamar

E----------------------------------------------------
A-3-------2----------------0-------2-----------------
D----------------------------------------------------
G--0---0---0---0------------2---2----2---2-----------
B---1---1---3---3------------1---1----0---0----------
e----0-------0----------------0--------2-------------
si el que era yo ya no va estar, esta es la ultima cena


Precoro:
   Am                           D
Y si, entiendo que quieres hablar
                             G
que a veces necesitas saber de mí,
  D                     C
pero no se si quieras saber de ti,
  Em7         Am
vivir así, seguir así
    D
pensando en tí,

Coro:
                G        C
Suelta mi mano ya por favor
                 D        Em
entiende que me tengo que ir
                  C        Am
si ya no sientes mas este amor
               D         G
no tengo nada mas que decir,

               A        D
No digas nada ya por favor
                     E7       F#m
te entiendo pero entiendeme a mí
                D         Bm
cada palabra aumenta el dolor
       D             E7      Em
y una lagrima  que quiere salir,

Solo:

F#m,E,Bm,C#m,F#m7,E,Bm,E

E------------------------------------------------
A------------------------------------------------
D------------------------------------------------
G----------------------------------14-14---------
B------14-----14-----12-----14----------12-12h14-
e-17-16--17-16--17-16--14-12--14-12--------------





E------------------------------------------------
A------------------------------------------------
D------------------------------------------------
G---------11----------------------9--9--9--11--11
B-14-14-14--14-----14-12-14-----10-10-10-10--10--
e-------------10-12--------10-12-----------------






Y aqui sube de tono:
                A        D
Suelta mi mano ya por favor
                 E        F#m
entiende que me tengo que ir
                  D        Bm
si ya no sientes mas este amor
               E         A 
no tengo nada mas que decir,

               B        E
No digas nada ya por favor
                    F#        G#m
te entiendo pero entiendeme a mí
                E         C#m
cada palabra aumenta el dolor
          E           F#    G#m
y una lagrima, que quiere salir,

F#,E,B

E------------------------------------------------
A------------------------------------------------
D------------------------------------------------
G------11-11-----11-11-----11-11-----------------
B-11-12-----11-12-----11-12----------------------
e------------------------------------------------
Aviso: Este fichero es trabajo propio de su transcriptor y representa su interpretación personal de la canción. El material contenido en esta página es para exclusivo uso privado, por lo que se prohibe su reproducción o retransmisión, así como su uso para fines comerciales.

Califica esta canción


Comentarios en Facebook