Acordes y tablaturas para guitarra

Acordes y Tablaturas
Usuario: Password:

Buscar:
Acordes y Tablaturas >> Letra B >> Acordes de Bersuit vergarabat >> Madre hay una sola
Acordes de Madre hay una sola, Bersuit vergarabat

Madre hay una sola

Bersuit vergarabat






do.lam.mim.re.sim.sol.
 Introducción: Sol Re Mim Do

e|--10-10-8-8-7-7-----------------------8-8-7-7-5-5-----------------------|
b|----------------10-10-8-8-7-7---------------------8-8-7-7-5-5-----------|
g|------------------------------9-9-7-7-------------------------7-7-5-5---|
a|------------------------------------------------------------------------|
d|------------------------------------------------------------------------|
E|------------------------------------------------------------------------|

e|--7-7-5-5-3-3------------------------5-5-3-3-2-2-----------------------||
b|--------------7-7-5-5-3-3-7----------------------5-5-3-3---------------||
g|-----------------------------5-5-4-4---------------------5-5-4-4-2-2-0-||
d|-----------------------------------------------------------------------||
a|-----------------------------------------------------------------------||
E|-----------------------------------------------------------------------||




		Sol			Re
Ciudades gigantes, enormes cloacas
		Mim				      Do
Viajan torrentes hacia el mar, de un amor que huele mal.
		Sol			Re
Como anunciándole al cielo, nuestro destino
		Mim					Do
Se ven las marcas de la muerte, por las ventanas del avión.

		Sol			Re
El progreso fue un fracaso, fue un suicidio
		Lam			Do
La ansiada prosperidad, fue el más pesado vagón.
		Sol			Re
Para qué un juicio final? Si ya estamos desechos
		Lam			Do
Una explosión natural, hará una gran selección.


ESTRIBILLO:

		Sol			   Sim
Yo te agradezco, porque aquí estoy
	Mim					Do
Vos sos mi única madre, con alma y vida yo venero tu jardín.
		Sol		Sim
Te agradezco, aunque me voy
    				Mim
Avergonzado por ser parte de la especie
			Do
Que hoy te viola en un patético festín.

		Sol			Re
Y aun no te libraste de nosotros, nuestra desidia
		Mim				Do
Fue por tenerte regalada, el creer que no vales nada.
		Sol			Re
Estas pariendo hijos ciegos, estas cansada
		Mim				Re
Aunque tus lágrimas saladas, nos pueden ahogar si quieres.


		Sol			Re
Los pocos que te aman, no tiene fuerzas
		Lam				Do
Como reliquias se pasean, solo paquetes de turismo son.
		Sol				Re
No hay mas amigos del sol, no hay mas ofrendas
		Lam				Do
Solo este ataque mortal al medio del corazón.



Yo te agradezco... [x2]

Final: Sol Re Mim Do



Bueno... ahí lo tienen, este es un tema de Bersuit del 
ultimo CD “Testosterona”, espero que lo disfruten, porque esta muy bueno.
Y quiero aclara que este tema lo saco un amigo mío que se llama Agustín Ganem.
Aguante la BERSUIT!!!

**************************************BERSUITEROS.COM**************************

Fuente original: LaCuerda
Colaborador original: Juan Agustin [[email protected]]

Que te parecio? Calificalo con estrellas!!

Rating: 8.2/10 (320 votos)

Este fichero es trabajo propio de su transcriptor y representa su interpretación personal de la canción. El material contenido en esta página es para exclusivo uso privado, por lo que se prohibe su reproducción o retransmisión, así como su uso para fines comerciales.


Deja tus comentarios:

Letras de Bersuit vergarabat
Letras de canciones | Musica Independiente