Enviado por:
Anonimo

Bersuit Vergarabat, Homenaje A Los Locos Del Borda

 Intro [Piano]:

1-|--4-4-3---------------3-3-2------------|--2-2-1-1-0-0------------------|
2-|--4-4-3-4-------4-----3-3-2-3-----3----|--2-2-1-1-0-0-5-5-4-3-----3—---|
3-|--------3-----3-------------2---2------|--------------4-4-3-2---2------|
4-|------------0-----0-----------0-----0--|----------------------0-----0--|
5-|---------------------------------------|-------------------------------|
6-|---------------------------------------|-------------------------------|

1-|--4-4-3---------------3-3-2------------|--2-2-2-1--1-0--0------|
2-|--4-4-3-4-------4-----3-3-2-3-----3----|--2-2-2-1--1-0--0-3-3--|
3-|--------3-----3-------------2---2------|------------------2-2--|
4-|------------0-----0-----------0-----0--|-----------------------|
5-|---------------------------------------|-----------------------|
6-|---------------------------------------|-----------------------|

      D                Am
La historia, no recordará
          C                              G
A esos espectros, que andan solos con su alma
   D                                      Am
Cabalgan, cabalgan, cabalgan, en sus fantasías
                C
Persiguen lo deseable
                     G
Y no se frenan con drogas inyectables

   D                                  Am
Mirando arriba, esperando a alguien bajar
     C                   Am          C          G
Sin dientes, como si la vida les quitara voracidad
     D             Am                   G
El vientre tan hinchado, de comer verdades
  D                                    Am
Avanzan, avanzan, avanzan, sin popularidad,
             C                           G
No necesitan tramites, para acceder a la vida

D
El pueblo esta dispuesto a perdonar
                 Am
A un terrible asesino
                  C
Pero siempre escupirá
´                    G
En la cara del que piensa distinto

        D                            Am
Aunque cante a veces, tengo la impresión
        C                  Am
Que la gente, escucha las frases
         C         G
Que acompañan, su caída
D             Am                   G
Miro a mi guitarra, y la veo tan inútil

     D                              Am
Me arranco la garganta, y quiero gritar
    C
Un auto es más acariciado
                 G
Que un hombre extraño [bis]

Fuente original: LaCuerda
Colaborador original: Joaquin [[email protected]]
Aviso: Este fichero es trabajo propio de su transcriptor y representa su interpretación personal de la canción. El material contenido en esta página es para exclusivo uso privado, por lo que se prohibe su reproducción o retransmisión, así como su uso para fines comerciales.

Califica esta canción


Comentarios en Facebook