Acordes y tablaturas para guitarra

Acordes y Tablaturas
Usuario: Password:

Buscar:
Acordes y Tablaturas >> Letra A >> Acordes de Aventura >> Solo Por Un Beso
Acordes de Solo Por Un Beso, Aventura

Solo Por Un Beso

Aventura

Transcriptor:
alexander parrales guerrero
Letras de Canciones
Acordes para Guitarra





am.c.d.dm.f.g.
E -----------------------|
B -----------------------|
G ----7-7-7-7-7-10-7-9---|
D --5--------------------|
A 3----------------------|
E -----------------------|

E -----------------------|
B -----------------------|
G -----------------------|
D ----7-7-7-7-7-10-7-9---|
A --5--------------------|
E 3----------------------|

E 15--0--13--0--12-0--10--0---15--0--13--0--12-0--10--0
B -----------------------------------------------------
G -----------------------------------------------------
D 14-14--14-14?14-14--12-12---14-14--14-14?14-14--12-12
A -----------------------------------------------------
E -----------------------------------------------------

E 15--0--13--0--12-0--10--0|
B -------------------------|
G -------------------------|
D 14-14--14-14?14-14--12-12|
A -------------------------|
E -------------------------|

¡Hay una mujer!

E ----------------------3-5---7-8-8-8-8-8-8|
B ----------------2-4-5---------5-5-5-5-5-5|
G --------0-2-4-5--------------------------|
D --0-2-3----------------------------------|
A -3---------------------------------------|
E -----------------------------------------|

Que domina mis sentidos con sólo tocar mi piel

E --10--8--7--5--3--5------|
B -------------------------|
G -------------------------|
D 12--10--9--7--5--3-------|
A -------------------------|
E -------------------------|





¡Y Cómo a mí también!

E --------------------|
B --------------------|
G ?0-0-0-0-0-0-0-3-0-2|
D --------------------|
A --------------------|
E 1-------------------|

A otro hombre esto le puede suceder.

E ----------------------------------------------------|
B --------------------------------------0-0-0-0-0-0-0-|
G ----2-2-2-2-2-2-2-5-2-4-4-4-4-4-------0-0-0-3-0-0-0-|
D -----------------------------------0-3--------------|
A --5-------------------------------------------------|
E 3--------------------------------3------------------|

                C
Que solo por un beso
         Am
Se puede enamorar
                F
Sin necesidad de hablarse
                Dm
Solo los labios rozarse
           G
Cupido los flechara

              C
Y solo por un beso
             Am
Con ella soy feliz
                F
Tan solo con un besito
                 Dm
Me llevo al infinito
                        G
Y ni siquiera la conozco bien.

              Am
Un beso significa amistad, sexo y amor
                       F
En cualquier parte del mundo

No importa la religión
                  D
Por un beso de su boca voy al cielo hablo con Dios
            G
Alcanzo las estrellas de emoción

           C
Su boca es tan sensual
                G
Que me cautiva y me incita

No me caso de besar
                Am
Su lengua es mi debilidad
                F
Ella sabe los truquitos
                G
Díganme si hay alguien más


                C
Que solo por un beso
         Am
Se puede enamorar
                F
Sin necesidad de hablarse

Solo los labios rozarse
           G
Cupido los flechara

              C
Y solo por un beso
              Am
Con ella soy feliz
                F
Tan solo con un besito
                 Dm
Me llevo al infinito
                         G
Y ni siquiera la conozco bien.


             Am
Un beso significa amistad, sexo y amor
                       F
En cualquier parte del mundo

No importa la religión
                  D
Por un beso de su boca voy al cielo hablo con Dios
            G
Alcanzo las estrellas de emoción


Que lindo es el amor,
escucha las palabras
de Romeo na na nanana


        C
Hay una mujer,
               Am
Que domina mis sentidos con solo tocar mi piel
            F
Y como a mi también
                      G
A otro hombre esto le puede suceder

                C
Que solo por un beso?

C, Am, F, G

              Am
Un beso significa amistad, sexo y amor
                       F
En cualquier parte del mundo

No importa la religión
                  D
Por un beso de su boca voy al cielo hablo con Dios
            G
Alcanzo las estrellas de emoción

Que te parecio? Calificalo con estrellas!!

Rating: 7.2/10 (113 votos)

Este fichero es trabajo propio de su transcriptor y representa su interpretación personal de la canción. El material contenido en esta página es para exclusivo uso privado, por lo que se prohibe su reproducción o retransmisión, así como su uso para fines comerciales.


Deja tus comentarios:
Letras de canciones | Musica Independiente