Acordes y tablaturas para guitarra

Acordes y Tablaturas
Usuario: Password:

Buscar:
Acordes y Tablaturas >> Letra E >> Acordes de EL GRAN SILENCIO >> Dejenme Si Estoy Llorando
Tablatura de Dejenme Si Estoy Llorando, EL GRAN SILENCIO

Dejenme Si Estoy Llorando

EL GRAN SILENCIO






INTRO

E-------------------------------------------
A-------------------------------------------
D-------------------------------------------
G---------------9-9-11--11-11-11-9-7-6-7-9--
B--10-10-10-9-7-----------------------------
E-------------------------------------------

E-------------------------------------------
A-------------------------------------------
D---------------------------------------7---
G--9-9-9-4-6-7-7-6-6---4-6-7-4-7----9-6-----
B--------------------------------7-7--------
E-------------------------------------------

E-------------------------------------------
A-------------------------------------------
D--7-------9-6---6/7-9-9-7-6-7--------------
G----6----9---------------------------------
B-----7-7-----------------------------------
E-------------------------------------------

ESTROFA #1
                   c#m  
Dejenme si estoy llorando
                         D
ni un consuelo estoy buscando
                      A         D
quiero estar solo con mi dolor,
D                      A
Si me ves que a solas voy llorando
                      E
esque estoy de pronto recordando
                    A     E
a un amor que no consigo, olvidaaaar.

ESTROFA#2
                   C#m
Dejenme si estoy llorando,
                 D
esque sigo procurando
                 A        D
en cada lagrima darme paz,
D                       A
pues el llanto le hace bien al alma
                     E
si he sufrido perdiendo la calma
                A                E
y yo quiero olvidar que tu amor, ya se fueee.

CORO
                      C#m
Si me ven que estoy llorando,
                   D
esque solo estoy sacando
                       A          D
la nostalgia que ahora vive en mi
D                     A
no me pidas ni una explicacion
                             E
si es que no he de hallar mi corazon
                 A         D
la felicidad que ya perdi,
D                  A
Y amnegado en este mar de llanto,
                   E
sentire que no te quise tanto
                   A
y quizas me olvidare de ti.

(esta parte que sigue va antes del solo)
E-------------------------------
A-------------------------------
D--5-3-5-0---5-3-5-0---5-3-5-0--
G-------------------------------
B-------------------------------
E-------------------------------

E-------------------------------
A-------------------------------
D--5-3-5----5-3-5----5-3-5-0----
G--------5--------5-------------
B-------------------------------
E-------------------------------

SOLO

ESTROFA#3
(esta es como rapeando)

Dm
Dejenme si estoy llorando,
que no puedo soportar vivir sin ella ni un minuto mas,
dejenme solo con este dolor, que fue fue mejor
no aceptar el final, distanciarme fue mejor,
que poco a poco,las lagrimas borran los recuerdos,
la nostalgia o al menos la tarea de engañar al alma,
disfrazando a la soledad, péro la verdad no es esa.

porque tu bien ya no lo olvido,
de estos labios no me he desperendido,
a pesar de todo no lo consigo,
he intentado aljarte de mi lado,
no he encontrado, lo correcto poco lo he logrado,
recoradar cada momento, 
porque el tiempo no lo es imposible,
sin olvidar, sin cuestionar, dejenme llorar

INTRO
(se repite el requinto del intro)

CORO
                      C#m
Si me ven que estoy llorando,
                   D
esque solo estoy sacando
                       A          D
la nostalgia que ahora vive en mi
D                     A
no me pidas ni una explicacion
                             E
si es que no he de hallar mi corazon
                 A         D
la felicidad que ya perdi,
D                  A
Y amnegado en este mar de llanto,
                   E
sentire que no te quise tanto
                               A                 
....y quizas me olvidareee de ti.

E------------
A------------
D--5-3-5-0---    
G------------
B------------
E------------

Que te parecio? Calificalo con estrellas!!

Rating: 6.6/10 (55 votos)

Este fichero es trabajo propio de su transcriptor y representa su interpretación personal de la canción. El material contenido en esta página es para exclusivo uso privado, por lo que se prohibe su reproducción o retransmisión, así como su uso para fines comerciales.


Comentario de acustic222
fuente la cuerda.net
Deja tus comentarios:
Letras de canciones | Musica Independiente