Enviado por: joni_rex
Agrandar Letra
Reducir Letra
Imprimir



Rammstein, Mutter

Intro

E---------------7----------------
B-------8---8-7---8-----10-------
G-----9---9---------9------------
D---9-----------------9----------
A-7------------------------------
D--------------------------------


E-----------7--------------------
B---------7---7------------------
G-------8-------8----------------
D-----9--------------------------
A---9----------------------------
D-9------------------------------


E--------------------------------
B--------------------------------
G--------------4-----------------
D--2--5--7--0--4-----------------
A--2--5--7--0--2-----------------
D--2--5--7--0--------------------


E--------7--7-5-7-5--------------
B-5--7-8------------7-7--7-8-7---
G--------------------------------
D--------------------------------
A--------------------------------
E--------------------------------
B--------------------------------


E--------------------------------
B--------------------------------
G--------------------------------
D--5--7--4-----------------------
A--5--7--4-----------------------
D--5--7--4-----------------------


E--------------------------------
B--------------------------------
G--------------------------------
D--4--7--9--2--0-----------------
A--4--7--9--2--0-----------------
D--4--7--9--2--0-----------------


E---------9--9-7-9-7-------------
B-7--9-10------------9-9--9-10-9-
G--------------------------------
D--------------------------------
A--------------------------------
E--------------------------------
B--------------------------------


E--------------------------------
B--------------------------------
G--------------------------------
D--7--9--6-----------------------
A--7--9--6-----------------------
D--7--9--6-----------------------
Aviso: Este fichero es trabajo propio de su transcriptor y representa su interpretación personal de la canción. El material contenido en esta página es para exclusivo uso privado, por lo que se prohibe su reproducción o retransmisión, así como su uso para fines comerciales.

Califica esta canción


Comentarios en Facebook