Enviado por: heavy-ac/dc
Agrandar Letra
Reducir Letra
Imprimir



Airbourne, Runnin\' Wild

Song name: Runnin\' Wild
Band name: Airbourne
Tabbed by: heavy

Tuning:
Gtr1: Standard (E,A,D,G,B,e)
Gtr2: Standard (E,A,D,G,B,e)

| pm palm mute
| /  slide up
| \\  slide down
| h  hammer-on
| p  pull-off
| ~  vibrato
| +  harmonic
| x  Mute note
| b  Bend
| r  Release bend

Intro: (Gtr2)             (pm throughout)
 .....................................................................|
e|---------------------------------------------------------------------|
B|---------------------------------------------------------------------|
G|---------------------------------------------------------------------|
D|---------------------------------------------------------------------|
A|---------------------------------------------------------------------|
E|-1-1-1-1-1-1-1-1-1-1-1-1-1-1-1-1-1-1-1-1-1-1-1-1-1-1-1-1-1-1-1-1-1-1-|(repeat as needed)

Intro: (Gtr1)
    D#5                      F5          D#5                      F5
e|---------------------------------------------------------------------|
B|---------------------------------------------------------------------|
G|-8-8-8--------------------------------8-8-8---------------------10---|
D|-8-8-8---------3-----3------3---------8-8-8--------3-----3------10---|
A|-6-6-6---------1-6-3-1-6-3--3---------6-6-6--------1-6-3-1-6-3--8----|
E|-----------------4-1---4-1--1------------------------4-1---4-1-------|

   pm    pm   pm                                     pm    pm  pm
   ...   ...   .    D#5                       F5     ...   ...  .
e|---------------------------------------------------------------------|
B|---------------------------------------------------------------------|
G|-----------------8-8-8-----------------------------------------------|
D|-----3-----3---3-8-8-8---------3-----3------3----------3----3---3----|
A|-----3-----3---3-6-6-6---------1-6-3-1-6-3--3----------3----3---3----|
E|-1-1---1-1---1-------------------4-1---4-1--1-------1-1--1-1--1------|
                                       pm     pm
    D#5                       F5       ...    ...
e|---------------------------------------------------------|
B|---------------------------------------------------------|
G|-8-8-8----------------------10---------------------------|
D|-8-8-8---------3-----3------10------------3-----3--------|
A|-6-6-6---------1-6-3-1-6-3--8-------------3-----3---1----|
E|-----------------4-1---4-1------------1-1---1-1---1---4--|

Verse:
  pm   pm         pm   pm         pm   pm         pm   pm
   .   ...         .   ...         .   ...         .   ...
e|--------------------------------------------------------------------|
B|--------------------------------------------------------------------|
G|--------------------------------------------------------------------|
D|---3-----3---8\\6---3-----3---8\\6---3-----3---8\\6---3-----3---8\\6----|
A|---3-----3---8\\6---3-----3---8\\6---3-----3---8\\6---3-----3---8\\6----|
E|-1-1-1-1-1-1-6\\4-1-1-1-1-1-1-6\\4-1-1-1-1-1-1-6\\4-1-1-1-1-1-1-6\\4----|2x

Cry me a river...
Refrain:              pm   pm         pm   pm
  D#5        F5        .   ...         .   ...           D#5        F5
e|--------------------------------------------------------------------|
B|--------------------------------------------------------------------|
G|-8---------3--------------------------------------------8---------3-|
D|-8---------3-----------3-----3---8\\6---3-----3---8\\6----8---------3-|
A|-6---------1-----------3-----3---8\\6---3-----3---8\\6----6---------1-|
E|---------------------1-1-1-1-1-1-6\\4-1-1-1-1-1-1-6\\4----------------|

 I gotta get away...
          C5
e|-------------------------|
B|-------------------------|
G|-5--5--5-5-5-5-5-5-5-5---|
D|-5--5--5-5-5-5-5-5-5-5-3-|
A|-3--3--3-3-3-3-3-3-3-3-3-|
E|-----------------------1-|

Chorus: Runnin...
    F5                      D#5
e|------------------------------------------------|
B|------------------------------------------------|
G|-10-10--------------------8-8-------------------|
D|-10-10-------3-----3------8-8-------3-----3-----|
A|-8--8--------1-6-3-1-6-3--6-6-------1-6-3-1-6-3-|
E|---------------4-1---4-1--------------4-1---4-1-|2x

Verse:
  pm   pm         pm   pm         pm   pm         pm   pm
   .   ...         .   ...         .   ...         .   ...
e|--------------------------------------------------------------------|
B|--------------------------------------------------------------------|
G|--------------------------------------------------------------------|
D|---3-----3---8\\6---3-----3---8\\6---3-----3---8\\6---3-----3---8\\6----|
A|---3-----3---8\\6---3-----3---8\\6---3-----3---8\\6---3-----3---8\\6----|
E|-1-1-1-1-1-1-6\\4-1-1-1-1-1-1-6\\4-1-1-1-1-1-1-6\\4-1-1-1-1-1-1-6\\4----|2x

Cry me a river...
Refrain:              pm   pm         pm   pm
  D#5        F5        .   ...         .   ...           D#5        F5
e|--------------------------------------------------------------------|
B|--------------------------------------------------------------------|
G|-8---------3--------------------------------------------8---------3-|
D|-8---------3-----------3-----3---8\\6---3-----3---8\\6----8---------3-|
A|-6---------1-----------3-----3---8\\6---3-----3---8\\6----6---------1-|
E|---------------------1-1-1-1-1-1-6\\4-1-1-1-1-1-1-6\\4----------------|

 I gotta get away...
          C5
e|-------------------------|
B|-------------------------|
G|-5--5--5-5-5-5-5-5-5-5---|
D|-5--5--5-5-5-5-5-5-5-5-3-|
A|-3--3--3-3-3-3-3-3-3-3-3-|
E|-----------------------1-|

Chorus: Runnin...
    F5                      D#5
e|------------------------------------------------|
B|------------------------------------------------|
G|-10-10--------------------8-8-------------------|
D|-10-10-------3-----3------8-8-------3-----3-----|
A|-8--8--------1-6-3-1-6-3--6-6-------1-6-3-1-6-3-|
E|---------------4-1---4-1--------------4-1---4-1-|4x

Solo:(Gtr1)
Hey hey hey!          Hey Hey Hey!
e|----------10-8----------------------------------|
B|----------11-9----------------------------------|
G|---------------10~~~------------10-8------------|
D|-------------------------------------10-8-6~~-3-|
A|------------------------------------------------|
E|------------------------------------------------|

Hey hey hey!        Hey Hey Hey
e|-------------------------------------12b13r~~---|
B|------------------------------12b13r------------|
G|------------------------------13b14r------------|
D|------------------------------------------------|
A|----------6-8-8~~~------------------------------|
E|------------------------------------------------|

Solo: (Gtr2)
Hey Hey Hey!
    F5                   F5
e|------------------------------------------|
B|------------------------------------------|
G|------------------------------------------|
D|-3-3-3---3-----3------3-3-3---3-----3-----|
A|-3-3-3---1-6-3-1-6-3--3-3-3---1-6-3-1-6-3-|
E|-1-1-1-----4-1---4-1--1-1-1-----4-1---4-1-|4x

    D#5                      F5          D#5                      F5
e|---------------------------------------------------------------------|
B|---------------------------------------------------------------------|
G|-8-8-8--------------------------------8-8-8---------------------10---|
D|-8-8-8---------3-----3------3---------8-8-8--------3-----3------10---|
A|-6-6-6---------1-6-3-1-6-3--3---------6-6-6--------1-6-3-1-6-3--8----|
E|-----------------4-1---4-1--1------------------------4-1---4-1-------|

No I wont turn around...
  pm   pm         pm   pm         pm   pm         pm   pm
   .   ...         .   ...         .   ...         .   ...
e|--------------------------------------------------------------------|
B|--------------------------------------------------------------------|
G|------------------------------------------------------------------8-|
D|---3-----3---8\\6---3-----3---8\\6---3-----3---8\\6---3-----3---8\\6--8-|
A|---3-----3---8\\6---3-----3---8\\6---3-----3---8\\6---3-----3---8\\6--6-|
E|-1-1-1-1-1-1-6\\4-1-1-1-1-1-1-6\\4-1-1-1-1-1-1-6\\4-1-1-1-1-1-1-6\\4----|


Cry me a river...
Refrain:              pm   pm         pm   pm
  D#5        F5        .   ...         .   ...           D#5        F5
e|--------------------------------------------------------------------|
B|--------------------------------------------------------------------|
G|-8---------3--------------------------------------------8---------3-|
D|-8---------3-----------3-----3---8\\6---3-----3---8\\6----8---------3-|
A|-6---------1-----------3-----3---8\\6---3-----3---8\\6----6---------1-|
E|---------------------1-1-1-1-1-1-6\\4-1-1-1-1-1-1-6\\4----------------|

 I gotta get away...
          C5
e|-------------------------|
B|-------------------------|
G|-5--5--5-5-5-5-5-5-5-5---|
D|-5--5--5-5-5-5-5-5-5-5-3-|
A|-3--3--3-3-3-3-3-3-3-3-3-|
E|-----------------------1-|

Chorus: Runnin...
    F5                      D#5
e|------------------------------------------------|
B|------------------------------------------------|
G|-10-10--------------------8-8-------------------|
D|-10-10-------3-----3------8-8-------3-----3-----|
A|-8--8--------1-6-3-1-6-3--6-6-------1-6-3-1-6-3-|
E|---------------4-1---4-1--------------4-1---4-1-|8x

Outro:
Hey Hey Hey!....
    F5      A#5 D#5      F5           A#5
e|--------------------------------------------|
B|--------------------------------------------|
G|----------8---------------------8-----------|
D|-3-3-3--3-8-6-8-8-6-3--3-3-3--3-8-6-8-8-6-3-|
A|-3-3-3--3-6-6-8-8-6-3--3-3-3--3-6-6-8-8-6-3-|
E|-1-1-1--1---4-6-6-4-1--1-1-1--1---4-6-6-4-1-|4x

   F5
e|-----|
B|-----|
G|-----|
D|-3-3-|
A|-3-3-|
E|-1-1-|

~~~~~~~~~~~~~~~~~~~~~~~~~~~~~~~~~~~~~~~~
Too much too young too fast by airbourne

~~~~~~~~~~~~~~~~~~~~~~~~~~~~~~~~~~~~~~~~

E|----------------------------3-3---------------3-----------------------------|
B|----------------3-3---------3-3----3-3----3---3-----------------------------|
G|--9-9----7-7----2-2----2----0-0----2-2----2---0----2------------------------|
D|--7-7----5-5----0-0----2----0-0----0-0----0---0----2------------------------|
A|--0-0----0-0----0-0----0-----------0-0-------------0------------------------|
E|----------------------------3-3-----------2---3---------x-x-12/-------------|

E|----------------------------3-3---------------------------------------------|
B|----------------------------3-3----3-3----3---------------------------------|
G|--9~9----7-7----7-7----2----0-0----2-2----2----0----2---2---2---------------|
D|--7-7----5-5----4-4----2----0-0----0-0----0----0----2---2---2---------------|
A|--0~0~---0-0----0-0----0-----------0-0----0---------0---0---0---------------|
E|----------------------------3-3----------------3----------------------------|

E|-------------------------------3-------------3------------------------------|
B|-------------------------------3-------------3------------------------------|
G|--2----------------------------0--------2----0--2--2--2----2----------------|
D|--2----------------------------0--0--2--2----0--0--2--2----2----------------|
A|--0-0-0-0-0-0-0-0-0-0-0-0-0-0-----0--0--0-------0--0--0----0-0-0-0-0-0-0----|
E|-------------------------------3-------------3------------------------------|

E|-----------------3--------------3-------------------------------------------|
B|-----------------3--------------3-------------------------------------------|
G|-----------------0--------2--x--0----2--2-----2--------2----2---------------|
D|-----------------0--0--2--2--x--0----0--2-----2--------2----2---------------|
A|--0-0-0-0-0-0-0-----0--0--0--x-------0--0--0--0--0-----0----0-0-0-0-0-0-0---|
E|-----------------3--------------3-------------------3-----------------------|

E|-----------------3-----------------3--------------------3----------------------|
B|-----------------3-----------------3--------------------3----------------------|
G|-----------------0--------2-----2--0--2--2-----2-----2--0----------------------|
D|-----------------0--0--2--2-----2--0--0--2-----2-----2--0--------------------2-|
A|--0-0-0-0-0-0-0-----0--0--0--0--0-----0--0--0--0--0--0-----------------------2-|
E|-----------------3-----------------3--------------------3--3-3-3-3-3-3-3-2-0-0-|

E|---------------------------3-----------------------3-3-------------------------|
B|-----------------5-5-5-----3--3--------------3-----3-3--3-3---3----------------|
G|-----------------4-4-4-----0--2--9-9-9/-7-7--2--2--0-0--2-2---2--0--2----------|
D|--2-2-2-2-2-2-2--2-2-2--0--0--0--7-7-7/-5-5--0--2--0-0--0-0---0--0--2----------|
A|--2-2-2-2-2-2-2---------0-----0--------------0--0-------------0-----0----------|
E|--0-0-0-0-0-0-0------------3-----------------------3-3-----------3----x-x-12/--|

E|------------------3-3-3--------------------------------------------------------|
B|------------3-----3-3-3--3-3--3------------------------------------------------|
G|--9-9--7-7--2--2--0-0-0--2-2--2--0---2--2--2-----------------------------------|
D|--7-7--5-5--0--2--0-0-0--0-0--0--0---2--2--2-----------------------------------|
A|------------0--0--------------0------0--0--0-----------------------------------|
E|------------------3-3-3----------3---------------------------------------------|

E|-------------------------------3-------------3------------------------------|
B|-------------------------------3-------------3------------------------------|
G|--2----------------------------0--------2----0--2--2--2----2----------------|
D|--2----------------------------0--0--2--2----0--0--2--2----2----------------|
A|--0-0-0-0-0-0-0-0-0-0-0-0-0-0-----0--0--0-------0--0--0----0-0-0-0-0-0-0----|
E|-------------------------------3-------------3------------------------------|

E|-------------------------------------------------3-------------3------------|
B|-------------------------------------------------3-------------3------------|
G|--2-2---2-----2----2-----------------------------0-------2-----0------------|
D|--0-2---2-----2----2-----------------------------0-0--2--2-----0------------|
A|--0-0-0-0-0-0-0----0-0-0-0-0-0-0-0-0-0-0-0-0-0-0---0--0--0-0-0--------------|
E|-------------------------------------------------3-------------3------------|

E|---------------------------------------------3------------3-----------------|
B|---------------------------------------------3------------3-----------------|
G|--2-2---2-----2--2---------------------------0-----2------0-----------------|
D|--0-2---2-----2--2---------------------------0-0-2-2------0-----------------|
A|--0-0-0-0-0-0-0--0-0-0-0-0-0-0-0-0-0-0-0-0-0---0-0-0-0----------------------|
E|---------------------------------------------3---------3--3-----------------|

E|----------------------------------------------3--------------3-----------------|
B|----------------------------------------------3--------------3-----------------|
G|--2-2---2------2--2---------------------------0-----2-----2--0-----------------|
D|--0-2---2------2--2---------------------------0-0-2-2-----2--0-----------------|
A|--0-0-0-0-0----0--0-0-0-0-0-0-0-0-0-0-0-0-0-0---0-0-0--0--0--------------------|
E|------------3---------------------------------3--------------3-----------------|

E|-----------------3-------------------------------------------------------------|
B|-----------------3-------------------------------------------------------------|
G|--2-2---2--------0-------------------------------------------------------------|
D|--0-2---2--------0--0-0-0-----------------------2--2-2-2-2-2-2-2---------------|
A|--0-0-0-0--3--2---------------------------------2--2-2-2-2-2-2-2---------------|
E|-----------------3--3-3-3-3-3-3-3-3-3-3-3-3-2-0-0--0-0-0-0-0-0-0---------------|

E|-----------3-------------------3-3---------------------------------------------|
B|--5-5-5----3--------------3----3-3--3-3--3-------------------------------------|
G|--4-4-4--0-0--9-9-9/-7-7--2-2--0-0--2-2--2--0--3-------------------------------|
D|--2-2-2--0-0--7-7-7/-5-5--0-2--0-0--0-0--0--0--2-------------------------------|
A|--------------------------0-0------------0-----0-------------------------------|
E|-----------3-------------------3-3----------3----x-x-12/-----------------------|

E|---------------3-3------------------------------------------3--2---------------|
B|------------3--3-3--3-3--3----------------------------------3--3---------------|
G|--9-9--7-7--2--0-0--2-2--2--0--2--2---------------9-9-9--0--0--2---------------|
D|--7-7--5-5--0--0-0--0-0--0--0--2--2------2-2-2-2--9-9-9--0--0--0---------------|
A|------------0------------0-----0--0------2-2-2-2--7-7-7--------0---------------|
E|---------------3-3----------3-------3-2--0-0-0-0------------3------------------|

solo

E|------5------------------------------------------17----------------------------|
B|----5---8-5---5---5-8-5---5---5-8-5-8-8-8-----17----17-20-20-20-17-17----------|
G|--7---------7---7-------7---7--------------19----------------------------------|
D|-------------------------------------------------------------------------------|
A|-------------------------------------------------------------------------------|
E|-------------------------------------------------------------------------------|

E|-------------------------------------17----------------------------17----------|
B|-------------------17-------------17----20-17----17-20-17----17--x-20-20-------|
G|--19-17------------17----------19-------------19----------19---x---------------|
D|-------19-17----------19-17-19-------------------------------------------------|
A|-------------19-19-------------------------------------------------------------|
E|-------------------------------------------------------------------------15/---|

E|--------------------------------------------------------------12---------------|
B|-----------------------------------------------------------12----15-12----12-15|
G|-----------------------------------------------12----12-14-------------14------|
D|-----------------------------------------------12-14---------------------------|
A|--7-5-7-5-7-7-5-4-5-4-5-4-5-4-5-------------14---------------------------------|
E|--------------------------------3-4-5-5-3-2------------------------------------|

E|----------------------------3-3---------------------------------------------|
B|----------------------------3-3----3-3----3---------------------------------|
G|--9~9----7-7----7-7----2----0-0----2-2----2----0----2---2---2---------------|
D|--7-7----5-5----4-4----2----0-0----0-0----0----0----2---2---2---------------|
A|--0~0~---0-0----0-0----0-----------0-0----0---------0---0---0---------------|
E|----------------------------3-3----------------3----------------------------|

E|--------------------3-3---------------------------------------------------------|
B|--------------3-----3-3--3-3--3-------------------------------------------------|
G|--9~9----7-7--2--2--0-0--2-2--2--0--2-2-2---------------------------------------|
D|--7-7----5-5--0--2--0-0--0-0--0--0--2-2-2--5-5-5-5-5-5-5--7--7-7-7-7-7-7-7-7-7--|
A|--0~0~---0-0--0--0------------0-----0-0-0--3-3-3-3-3-3-3--4--5-5-5-5-5-5-5-5-5--|
E|--------------------3-3----------3----------------------------------------------|

E|-----------------------------------3-3-------------------------------------|
B|-------------------------3-3-3-----3-3---3-3--3----------------------------|
G|-------------9-9-9-9--7--2-2-2--2--0-0---2-2--2--0--2-2-2------------------|
D|--9--12?12/--7-7-7-7--5--0-0-0--2--0-0---0-0--0--0--2-2-2------------------|
A|--7--10?10/---------------------0-------------0-----0-0-0------------------|
E|-----------------------------------3-3-----------3-------------------------|

E|---------------------------------------------------------------------------|
B|--10-10-10-10--8--8-8-8--7-7--8--10--10--8--8--7------7-7-5----------------|
G|--12-----------10--------9----10-12------10----9--9-5-7-7-5----------------|
D|------------------------------------------------------------7--7-5-7-------|
A|---------------------------------------------------------------------------|
E|---------------------------------------------------------------------------|

E|--17-17----15-15----15-14-14----------17-----15-14-14-14/------------------|
B|--------20-------19----------17-18-20--------18----17-17/----7-7-5---------|
G|-----------------------------------------0-0-------------5-7-7-7-5---------|
D|-----------------------------------------0-0-------------------------------|
A|---------------------------------------------------------------------------|
E|---------------------------------------------------------------------------|

E|---------------------------------------------------------------------------|
B|---------------------------------------------------------------------------|
G|---------------------------------------------------------------------------|
D|--7-7-5--------------------------------------------------------------------|
A|--------7-6-5-3-0----------------------------------------------------------|
E|---------------------------------------------------------------------------|
Aviso: Este fichero es trabajo propio de su transcriptor y representa su interpretación personal de la canción. El material contenido en esta página es para exclusivo uso privado, por lo que se prohibe su reproducción o retransmisión, así como su uso para fines comerciales.

Califica esta canción


Comentarios en Facebook


Más canciones de Airbourne: