Acordes y tablaturas para guitarra

Acordes y Tablaturas
Usuario: Password:

Buscar:
Acordes y Tablaturas >> Letra B >> Acordes de Bon Jovi >> Bed Of Roses
Acordes de Bed Of Roses, Bon Jovi

Bed Of Roses

Bon Jovi






am.bb.c.dm.f.
Bed of roses.
Intro:  
-----
   rake                               rake
E ---10-12-[b]13-12-10------------------10-12-[b]13-12-10-------------------
B --10-------------------10^13^10------10-----------------13[b]15--10^13----
G -10---------------------------------10------------------------------------
D --------------------------------------------------------------------------
A --------------------------------------------------------------------------
E --------------------------------------------------------------------------

   rake
E ---10-12-[b]13-12-10-----------------------10-12-[b]13-12-10--------------
B --10------------------13[b]15--13^15------10-----------------13[b]15--10^13
G -10---------------------------------14---10-------------------------------
D --------------------------------------------------------------------------
A --------------------------------------------------------------------------
E --------------------------------------------------------------------------


Verso 1:  
-------

Bb                                            F
Sitting here wasted and wounded with this old piano.

       Bb                                         F
Trying hard to capture the moment, this morning I don't know.

         Am                    Bb                       F
'cause a bottle of vodka still lies in my head and some blonde

                                                   Bb
gave me nightmares, I think that she's still in my bed.

     Bb                      C                         F
As I think about movies they won't make of me when I'm dead.

        Bb                                          F
With an iron-clad fist I wake up to french-kiss the morning.

        Bb                                                        F
While a marching band keeps it's own beat in my head while we're talking

      Am                  Bb                       F         
about all of the things I longed to believe, about love, the truth,

                            Bb
what you mean to me and the truth is...

Bb          C         
Baby you're all that I need.

coro:
------

        Dm      C         Bb     F   
I wanna lay you down in a bed of roses.

Dm        C          Bb     F  
Tonight I sleep on a bed of nails.

        Bb         F            Bb   F
I wanna be just as close as the Holy Ghost is.

Dm  C   Bb                F
Lay you down, on a bed of roses.


Verso #2:se toca igual que el primero.

I'm so far away, each step that I take's on my way home.
A king's ransom in dimes I'd give each night to see through this payphone.
But I'd run out of time or it's hard to get through till the bird on the wire
flies me back to you. I'll just close my eyes. 
And whisper "baby it probably is true".


    Bb                  C
The hotel bars hangover whiskey's gone dry.

       F                
The bartender's wig's crooked, she's giving me the eye.

  Bb                       Bb              C         F  
I might've said yes, but I laughed so hard I think I died.


Solo:
----
   
E ---------------------------------------------10---------------------------
B ------------------------------------------------13^10-13[b]15~-13[b]15--13
G --------------------------------------------------------------------------
D ---------3-5-5[b]7-5[b]7~-3^5---------------------------------------------
A --5-3-5~----------------------3~--3^5-------------------------------------
E --------------------------------------/5~--------------------------------


E --13[b]15--13~--13-10----10-----------------------------------13-15-[b]17~
B ----------------------13----13-10---10-13-13[b]15~------15-17-------------
G ----------------------------------9------------------/14------------------
D --------------------------------------------------------------------------
A --------------- triplet  triplet  triplet --------------------------------
E --------------------------------------------------------------------------

                                              rake
E --15-13-17[b]18--17--13^15--------------------10-12-[b]13-12-[b]12\/~-----
B ---------------------------13~--13^15--------10---------------------------
G --------------------------------------14~---10----------------------------
D --------------------------------------------------------------------------
A --------------------------------------------------------------------------


Verso 3:
-------

Now as you close your eyes you know I'll be thinking about you.
My mistress she calls me to stand in her spotlight again.
I won't be alone, you know that don't mean I'm not lonely.
I've got nothing to prove, for its you I'd die to defend.

Coro x2

Que te parecio? Calificalo con estrellas!!

Rating: 7.2/10 (82 votos)

Este fichero es trabajo propio de su transcriptor y representa su interpretación personal de la canción. El material contenido en esta página es para exclusivo uso privado, por lo que se prohibe su reproducción o retransmisión, así como su uso para fines comerciales.


Comentario de luiiS JovaN
Esta es mi primer rola que sako espero qe les guste.
Deja tus comentarios:
Letras de canciones | Musica Independiente